Song name
# A B C D E F G H I J K L M N O P Q R S T U V W X Y Z

Fu Manchu - Mongoose tab

Riff 1. (intro & Chorus)

e|-----------------------------------------------|
B|-----------------------------------------------|
G|-----------------------------------------------|
D|---------------------3-------------------------| 
A|---------3-5---3-5-----5-3---------------------|
D|-0-0-0-0-----0-----0-------7-5-----------------|


Riff 2. (this is not correct, but those are right chords, 
figure it our by listening a song it is simple)
 
e|-----------------------------------------------|
B|-----------------------------------------------|
G|-----------------------------------------------|
D|-5--5--5-5---3-3-3-3-3--10--10-10---5-5-5-5----| 
A|-5--5--5-5---3-3-3-3-3--10--10-10---5-5-5-5----|
D|-5--5--5-5---3-3-3-3-3--10--10-10---5-5-5-5----| 

RifF 1.

e|-----------------------------------------------|
B|-----------------------------------------------|
G|-----------------------------------------------|
D|---------------------3-------------------------| 
A|---------3-5---3-5-----5-3---------------------|
D|-0-0-0-0-----0-----0-------7-5-----------------|

Riff 3.

e|-----------------------------------------------|
B|-----------------------------------------------|
G|-----------------------------------------------|
D|-----------------------------------------------| 
A|---------3-5---3-5-------0-3-5-----------------|
D|-0-0-0-0-----0-----0-3-5-----------------------|



e|-----------------------------------------------|
B|-----------------------------------------------|
G|-----------------------------------------------|
D|-0-0-000-10-5-555-0-8-3-333-0-10-5-555---------| 
A|-0-0-000-10-5-555-0-8-3-333-0-10-5-555---------|
D|-0-0-000-10-5-555-0-8-3-333-0-10-5-555---------|
Tap to rate this tab
 
# A B C D E F G H I J K L M N O P Q R S T U V W X Y Z