Song name
# A B C D E F G H I J K L M N O P Q R S T U V W X Y Z

Fu Manchu - Evil Eye tab

Thanks to Setch for tabbing this. The other version on here is good, but I believe 
this one is perfect.

"Evil Eye" by Fu Manchu.

 From the Album "The Action is go".

 Tabbed by SETCH.

 Tuning:-all strings down a full step.

 eg(DGCFAD)
 
 Intro. (with wah wah)
 
  Apply wah for the bend (a quick stab to make it yelp) then roll
  the pedal from off (bassy) to on (trebly) as you strum the low E.
 
 d|-------------------------------------------------------------|
 A|-12----------------------------12----------------------------|
 F|-14b16-------------------------14b16-------------------------|
 C|-------------------------------------------------------------| 
 G|-------7-7-7-7-7-7-7-7-7-7-7-7-------7-7-7-7-7-7-7-7-7-7-7-7-|
 D|-------0-0-0-0-0-0-0-0-0-0-0-0-------0-0-0-0-0-0-0-0-0-0-0-0-|
 
 


 Riff 1. 

 d|-------------------------------------------------------------|
 A|-------------------------------------------------------------|
 F|-------------------------------------------------------------|
 C|-2--2-2-2-5--7-----------------2--2-2-2-5--7-----------------| 
 G|-2--2-2-2-5--7--3-4-5-0-3-4-5--2--2-2-2-5--7--3-4-5-0-3-4-5--|
 D|-0--0-0-0-3sl5-----------------0--0-0-0-3sl5-----------------|


 Riff 2. (guitar 1)

 d|--------------------------------------------------|
 A|--------------------------------------------------|
 F|--------------------------------------------------|
 C|--7-7--5-7-8-8-8-5--7---7-7--5-7-8----------------| 
 G|--7-7--5-7-8-8-8-5--7---7-7--5-7-8----------------|
 D|--5-5--3-5-6-6-6-3sl5---5-5--3-5-6----------------|
 
 Riff 2. (guitar 2)

 d|--------------------------------------------------|
 A|--5----5---5----6----( Strum the two strings )----|
 F|--7b9--7b9-7b9--8b10-(  holding the bend     )----|
 C|--------------------------------------------------| 
 G|--------------------------------------------------|
 D|--------------------------------------------------|
 
 
 d|--------------------------------------------------|
 A|--5----5---5----6---------------------------------|
 F|--7b9--7b9-7b9--8b10------------------------------|
 C|--------------------------------------------------| 
 G|--------------------------------------------------|
 D|--------------------------------------------------|

 Riff 3.

 d|----------------------------------------------------------|
 A|----------------------------------------------------------|
 F|----------------------------------------------------------|
 C|-2--------------------------------------------------------| 
 G|-2-----------5--5-5-------7---2-----------5--5-5-------7--|
 D|-0--0-5-6-7---------7-6-5-----0--0-5-6-7---------7-6-5----|

 

 Thats all folks!
Tap to rate this tab
# A B C D E F G H I J K L M N O P Q R S T U V W X Y Z