Song name
# A B C D E F G H I J K L M N O P Q R S T U V W X Y Z

Fu Manchu - Weird Beard tab

Weird Beard
By Fu Manchu-1999
From “King of the Road”
Tabbed by Tedward

Drop D

E-----------------------------------------------------------|
B-----------------------------------------------------------|
G-----------------------------------------------------------|
D---0----3-------3---5---5(12)---5---3---3------------------|
A---0--------5--------------------------------5---—3—5------|
D---0-------------------------------------------------------|

E-----------------------------------------------|
B-----------------------------------------------|
G-----------------------------------------------|
D---0----3------3---5---5(12)---5---3-----------|
A---0-------5-----------------------------------|
D—--0-------------------------------------------|

E--------------------------------------------------------|
B--------------------------------------------------------|
G--------------------------------------------------------|
D--------------------3-----------------------------------|
A---3-/-5-5-5-5-5-------5—5-5-5--------------------------|
D----------------------------------------5(1/4)—3-p-0----|

E------------------------------|
B------------------------------|
G------------------------------|
D---7--------5--------3---0----|      “Weird Beard”
A---7--------5--------3---0----|
D---7--------5--------3---0----|

 Pre Bend----|
E----------------------------------------------------------------------------------|
B----------------------------------------------------------------------------------|
G—12—12—12—12----12—10----------------------------10(12)----12(12)------12—10------|
D--------------------------12---10---10-h-12---------------------------------------|
A----------------------------------------------------------------------------------|
D----------------------------------------------------------------------------------|


E--------------------------------|
B--------------------------------|
G-------------10-----------------| That should be enough of the solo to get
D—12-p-10—10------10-h-12--------| started on. I don't think he leaves
A--------------------------------| the 10th and 12th frets.
D--------------------------------|

Hundreds-Thousands-Millions will appear
He struggles to signal,
so says the weird beard
And he rides around
for a chance to see it all
Uncertain, Unknowing
We’re sure he will fall
So he quickly takes the high road
To where he’s no known
He will return
Down a slide to his thrown

And he says-he says
Weird Beard

Five mile-Six mile- Seven mile wide
As he sped toward the mountain
And an easy place to hide
Tap to rate this tab
 
# A B C D E F G H I J K L M N O P Q R S T U V W X Y Z