Song name
# A B C D E F G H I J K L M N O P Q R S T U V W X Y Z

Fu Manchu - Eatin Dust tab

"Eatin' Dust" by Fu Manchu.

 From the Album "Eatin' Dust".

 Tabbed by SETCH. Brought to you by stickyhomer.

 Tuning:-all strings down a full step.

 eg(DGCFAD)


 Riff 1. (intro & Chorus)

 d|---------------------------------------------------------|
 A|---------------------------------------------------------|
 F|---------------------------------------------------------|
 C|--------------5---------------------------5--------------| 
 G|--------5-h-7---7-5-5-7-5-7---------5-h-7----7-5-5-7-----|
 D|--5-h-7-----------------------5-h-7----------------------|


 Riff 2. (verse)
 
 d|---------------------------------------------------------|
 A|---------------------------------------------------------|
 F|---------------------------------------------------------|
 C|--7--9-99----5-------3--------7--9-99----5-------3-------| 
 G|--5sl7-77----3-5-5-5-1-3-3-3--5sl7-77----3-5-5-5-1-5-5-5-|
 D|---------------3-3-3---1-1-1---------------3-3-3---1-1-1-|
 
 Riff 3. (interlude)
 
 d|---------------------------------------------------------|
 A|---------------------------------------------------------|
 F|---------------------------------------------------------|
 C|-------------5---------5----------------5---------5------| 
 G|--2-2--5-h-7---7-5-h-7---7---2-2--5-h-7---7-5-h-7---7----|
 D|--0-0------------------------0-0-------------------------|
 
 Bob plays solos over all these riffs at one time or an other,
 all pentatonic stuff....go improvise.
Tap to rate this tab
 
# A B C D E F G H I J K L M N O P Q R S T U V W X Y Z