Guitaretab - guitar tabs
Song name
# A B C D E F G H I J K L M N O P Q R S T U V W X Y Z

Fu Manchu - Todays Too Soon tab

"Today's Too Soon" by Fu Manchu, from "Start the Machine". Tabbed by Nick Rosendahl on 1/13/2007.

Tune guitar down a whole step.

Intro/Verses
D----------------------------|
A----------------------------|
F----------------------------|
C--9-9-7-9---------7-9-9-7-9-|
G--7-7-5-7--5-5-5--5-7-7-5-7-|
D-----------3-3-3------------|

Chorus
D---------------------|
A---------------------|
F---------------------|
C--5-5--3-3-----------|
G--3-3--1-1--5--5-5-5-|
D------------3--3-3-3-|
[ Tab from: http://www.guitaretab.com/f/fu-manchu/83603.html ]
Next Riff (last note alternates btw 1 and 3 on the G string)
D--------------------------|
A--------------------------|
F--------------------------|
C--5------7------5-------3-|
G--3--5---5--7---3--5-5--1-|
D-----3------5------3-3----|

"It's a long way out..." (last note alternates btw 6 and 8 on D string)
D--------------------|
A--------------------|
F--------------------|
C--------------------|
G--5-5--7-7--5-5-5-8-|
D--3-3--5-5--3-3-3-6-|

The ending to the previous riff (first note = last note of previous riff)
D---------------|
A---------------|
F---------------|
C---------------|
G--10-10-10-7-5-|
D--8--8--8--5-3-|
Related for Todays Too Soon tab
Todays Too Soon chords by Fu Manchu