Song name
# A B C D E F G H I J K L M N O P Q R S T U V W X Y Z

Fuck Im Dead - Jeffrey Dahmers Cookbook tab

Band: Fuck...I'm Dead 
Album: Bring On The Dead 
Song: Jeffery Dahmer's Cookbook 



Code: 
. - palm mute           / - slide up to 
\ - slide down to       x  Staccato 
h - hammer on           p - pull off 
, - slight palm mute    () - ghost note, sustained note 
" - tremolo note        <> - Trill 
L  left channel only   R  right channel only 
* - see comment 

Suffixes for bend 
f - full bend       h - half bend 
q - quarter bend    t - tap bend 
^ - Hold bend       r - release bend 
~ - vibrato bend 

Suffixes for harmonic 
ph - pinched harmonic   n  natural/artificial harmonic 

Tuning B F# B E G# C# 

Intro (0:00) 
|---------------| 
|---------------| 
|---------------| 
|-----5---4-----| 
|-2---3---2-----| 
|-2-------------| 


Riff 1 (0:03) play 6 times 
|-------------------| 
|-------------------| 
|-------------------| 
|-------------------| 
|---55--88--33--22--| 
|-77--88--77--55----| 

Fill 1 (0:12) 
|---------------| 
|---------------| 
|---------------| 
|---------77----| 
|-----------77--| 
|-88775577------| 

Riff 2 (0:13) play twice 
|----------------------------------------------------------| 
|----------------------------------------------------------| 
|----------------------------------------------------------| 
|----------------------------------------------------5-7-5-| 
|---77--77--77--77-7-7--77--77--77--77-7-7-7--5--7-7-------| 
|-00--00--00--00--0-0-00--00--00--00--0-0-----5--7---------| 

Fill 2 (0:24) 
|--------------| 
|--------------| 
|--------------| 
|--------------| 
|-6-1-3--------| 
|-6-1-3-3-1-0--| 

Riff 3 (0:26) play 4 times 
|---------------| 
|---------------| 
|---------------| 
|---------------| 
|-------222-----| 
|-222111---223--| 

Fill 3 (0:31) 
|---------| 
|---------| 
|---------| 
|-----5---| 
|-2---3---| 
|-2-------| 

Riff 1 x 2/3 (0:33) 
Intro x 1 (0:40) 
Riff 2 x 1 1/2 (0:43) 
End
Tap to rate this tab
# A B C D E F G H I J K L M N O P Q R S T U V W X Y Z