Song name
# A B C D E F G H I J K L M N O P Q R S T U V W X Y Z

Fuck Im Dead - Fuck Im Dead tab

Intro
------------------|
------------------|
------------------|
------------------| gtr 1
-3-5-6-3-5--------|
-3---------6-5-3--|

------------------|
------------------|
------------------|
------------------| gtr 2
-3----------------|
-3---------6-5-3--|

Big drum roll

Riff 1 (play 4 times)
---------------------------------|
---------------------------------|
---------------------------------|
---------------------------6-5-3-|
---5-6-3-5---------5-6-3-5-------|
-3---------6-5-2-3---------------|

Fill 1
-----------------|
-----------------|
-----------------|
-----------------|
-3---6---2-------|
-3---6---2-------|

Riff 2 (play twice)
--------------------------|
--------------------------|
--------------------------|
--------------------------|
-6"---5"--------------3"--|
-----------6"---222222----|
                ......

Riff 3 (play 4 times)
----------------------|
----------------------|
----------------------|
----------------------|
----------------------|
-6-3-6-3-0-5-2-5-2-0--|
         .         .

Quick, ultra-mega-superhumanly-fast drum roll

Riff 2 x 2
Riff 3 x 1

Riff 4 (play 5 times)
-----------------|
-----------------|
-----------------|
-----------------|
-----------------|
-2-6-7-3-2-6-7-3-|

End
---
---
---
---
-2-
-2-
Tap to rate this tab
 
# A B C D E F G H I J K L M N O P Q R S T U V W X Y Z