Song name
# A B C D E F G H I J K L M N O P Q R S T U V W X Y Z

Fuck Im Dead - Army Of Hermaphrodites tab

Riff 1 (play 4 times)
-------------------|
-------------------|
-------------------|
-----5---------5---|
-2---3---5---7-3---|
-2-------5---7-----|

Riff 2 (play 6 times)
----------------|
----------------|
----------------|
----------------|
---3---2--------|
-7---6---0-3-0--|

Riff 3
---------------------------------------------|
---------------------------------------------|
---------------------------------------------|
-----5-2-3-----5-2-3-----5-2-3-----5-2-3-----|
---2-3-0-1---2-3-0-1---2-3-0-1---2-3-0-1---2-|
-1-2-------1-2-------1-2-------1-2-------1-2-|
 .         .         .         .         .
Riff 4 (play 4 times)
---------------0-------------------------|
----1h2----1h2-----1-2-------------------|
-2------5--------0-----2-1---------------|
---------------------------3-2-----------| gtr 1
-----------------------------------------|
-----------------------------------------|

-----------------------------------------|
-----this is a lot faster than it looks--|
-----------------------------------------|
-----------------------------------------| gtr 2
-7------3------0------2------------------|
-7------3------0------2------------------|

Riff 5a
-------------------------------12ph-|
------------------------------------|
------------------------------------|
------------------------------------|
-0-0-0-0-0-0-0-0-2-2-2-2-0-0-0------|
-0-0-0-0-0-0-0-0-2-2-2-2-0-0-0------|
 . . . . . . . . . . . . . . .

Riff 5b
----------------------------------|
----------------------------------|
----------------------------------|
----------------------------------|
-0-0-0-0-0-0-0-0-2-2-2-2-0-0-0-0--|
-0-0-0-0-0-0-0-0-2-2-2-2-0-0-0-0--|
 . . . . . . . . . . . . . . . .

Riff 5a x 1
Riff 5b x 1

Riff 6 (play 4 times, have a quick break for a drum roll first time)
-------------------------|
-------------------------|
-------------------------|
-------------------------|
-2-3----------2-3---3-2--|
-----00000000-----0------|
                  .

End
----------|
----------|
----------|
----------|
-3-2------|
-----2-0--|
Tap to rate this tab
# A B C D E F G H I J K L M N O P Q R S T U V W X Y Z