Song name
# A B C D E F G H I J K L M N O P Q R S T U V W X Y Z

Fuck Im Dead - My Feral Fucktoy tab

Intro
----------------------------------|
----------------------------------|
-------------1111-----------------|
-----------------3333-------------|
-0--0--0--0----------55554444-0---|
-0--0--0--0-------------------0---|

Riff 1 (play twice)
------------------------------------------------------------------|
------------------------------------------------------------------|
-------------------------------------------------1111-------------|
-----------------------------------------------------3333---------|
-------------0000------------0000------------0000--------55554444-|
-000000003333----000000003333----000000003333---------------------|
 ................................................

Riff 2
------------------------------|
------------------------------|
------------------------------|
------------------------------|
-0--5-7-0--5-7-0--5-7-0--5-0--|
-0--5/7-0--5/7-0--5/7-0--5/7--|

Riff 3 (play twice)
------------------------------------------------------|
------------------------------------------------------|
------------------------------------------------------|
-------------------------------------------------6----|
---------0000--------0000--------00007---3---0---4--0-|
-0000000000000000000000000000000000007---3---0------0-|
 ....................................

Riff 4 (play 4 times)
-------------|
-------------|
---------1---|
-----3-------| gtr 1 clean
---0---0---0-|
-0-----------|

-------------|
-------------|
-------------|
-------------|
-(0)---------| gtr 2 distortion carried from
-(0)---------| last riff

Riff 1 x 1
Riff 2 x 1
Riff 3 x 2

Riff 5
--------------|
--------------|
--------------|
--------------|
--------------|
-7"-----------|
 .

Riff 6 (till end)
-----------------------|
-----------------------|
-----------------------|
-----------------------|
-1-----2---0---1-431---|
-1-1-1-2-2-0-0-1-431---|
   . .   .   .
Tap to rate this tab
# A B C D E F G H I J K L M N O P Q R S T U V W X Y Z