Song name
# A B C D E F G H I J K L M N O P Q R S T U V W X Y Z

Fuck Im Dead - Shotgun Facelift tab

Riff 1a (play 4 times)
-------------------|
-------------------|
-------------------|
-------------------|
-6666----5555------|
-----0000----1111--|

Riff 1b (play 4 times)
-------------------|
-------------------|
-------------------|
-------------------|
---------55556666--|
-00001111----------|

Riff 2 (play 4 times)
---------------------16ph--|
---------------------------|
---------------------------|
-7-------------------------|
-5--6--5h8p7p5-------------|
----6----------2-2-2-------|
               . . .
Riff 3
-------------------------------------------|
-------------------------------------------|
-------------------------------------------|
---------------------------6---------------|
------------------0--2--7--4---------5---5-|
-6060606060606060-0--2--7----0-0-0-0---0---|
  . . . . . . . .            . . . .   .

Riff 4
-------------------------|
-------------------------|
-------------------------|
-------------------------|
-6--5--6--5--6--5--6--5--|
-------------------------|

Riff 5
---------------------------|
---------------------------|
---------------------------|
---------------------------|
---6--5--6--5--6--5--6--5--|
-00-00-00-00-00-00-00-00---|
 .. .. .. .. .. .. .. ..

Riff 6
------------------------------|
------------------------------|
------------------------------|
------------------------------|
-----5/6----5/6----5/6----5/6-|
-0000---0000---0000---0000----|
 ....   ....   ....   ....

Riff 2 x 1
End
Tap to rate this tab
 
# A B C D E F G H I J K L M N O P Q R S T U V W X Y Z