Song name
# A B C D E F G H I J K L M N O P Q R S T U V W X Y Z

Fuck Im Dead - Slowly Raped With A Chainsaw tab

Riff 1
---------------------------------------------------17ph-|
--------------------------------------------------------|
------5-4-2-----------5-4-2-----------------------------|
------------6-5-4-3---------6-5-4-3---------3-----------|
-7--0---------------0---------------2-3-2---2-----------|
-7----------------------------------2-3-2------222------|
 .                                             ...
Riff 2a
---------------------------------|
---------------------------------|
---------------------------------|
-22332233--------22332233--------|
---------1122-------------2--4-4-|
-------------3322---------2--4-4-|
                             . .
Riff 2b
------------------------------------|
------------------------------------|
------------------------------------|
-22332233--------22332233-----------|
---------1122------------1122-----2-|
-------------3322------------3322-2-|

Riff 3 (play 4 times)
------------------|
------------------|
---554422---------|
---------66554433-|
-00---------------|
------------------|

Fill 1
-------------|
-------------|
-------------|
----------3--|
----------2--|
-3333332-----|
 ......

Riff 2a x 1
Riff 2b x 1

Fill 2
----------|
----------|
----------|
-----3----|
-2---1----|
-2--------|

Riff 4 (play 4 times)
-----------------|
-----------------|
-----------------|
----------3------|
----------2---3--|
-3333332----2----|
 ......     .

End
-------12-|
----------|
----------|
----------|
----------|
-333333---|
 ......
Tap to rate this tab
 
# A B C D E F G H I J K L M N O P Q R S T U V W X Y Z