Song name
# A B C D E F G H I J K L M N O P Q R S T U V W X Y Z

Fuel - Million Miles tab

Band: Fuel
Song: Million Miles
Album: Natural Selection
Tabber: Caleb Howard (a.k.a. BrokenWingman)

This song is played in Drop D with the capo at 1st fret. I know Carl probably
tunes his guitar up a half step. So you can do that too. All tab numbers are
relative to the capo. (capo=0)

.= Palm Mute
/= Slide Up
= Slide Down


Intro
e-0-0--|
B-1-0--|
G-2-2--|
D-2-2--| (00:00-00:04)
A-0-0--|
D------|

Verse
e-0--0--x--0-|
B-1--0--6--3-|
G-2--2--5--2-|
D-2--2--3--0-| Repeat 3x (00:05-00:35)
A-0--0--3--0-|
D-x--x--3--0-|

Chorus
e----------------------------------|
B----------------------------------|
G----------------------------5-7-5-| Repeat 3x 00:36-00:50
D-3-3--5-5--5-7-5-7-5-7-5-7--------|
A-3-3--5-5--5-7-5-7-5-7-5-7--------|
D-3-3--5-5--5-7-5-7-5-7-5-7--------|

e----------0-0-0-0--------------|
B----------3-3-3-3--------------|
G----------2-0-2-0--------------|
D-3333/555-0-0-0-| (00:51-1:03-|
A-3333/555-0-0-0---------------|
D-3333/555-0-0-0---------------|

POST-Chorus
e----------------------|
B----------------------|
G----------------------|
D-7777-5555-4444-3333--| (1:04-1:08)
A-7777-5555-5555-3333--|
D-7777-5555-4444-3333--|
  .... .... .... ....

Verse
e-0--0--x--0-|
B-1--0--6--3-|
G-2--2--5--2-|
D-2--2--3--0-| Repeat as needed (1:09-1:39)
A-0--0--3--0-|
D-x--x--3--0-|

Chorus
e----------------------------------|
B----------------------------------|
G----------------------------5-7-5-| Repeat 3x (1:40-1:54)
D-3-3--5-5--5-7-5-7-5-7-5-7--------|
A-3-3--5-5--5-7-5-7-5-7-5-7--------|
D-3-3--5-5--5-7-5-7-5-7-5-7--------|

e----------0-0-0-0-------------|
B----------3-3-3-3-------------|
G----------2-0-2-0-------------|
D-3333/555-0-0-0-| (1:55-2:07-|
A-3333/555-0-0-0--------------|
D-3333/555-0-0-0--------------|

Break-Down
e-------------------|
B-------------------|
G-------------------|
D-7-1-0--x----------| Repeat 4x (2:08-2:17)
A-7-1-0--x----------|
D-7-1-0--x----------|
         Muted Strum

Bridge
e-0---x---x---x--xxxx-xxxx-|
B-1---x---x---x--xxxx-xxxx-|
G-2---5---2---4--4444-4444-|
D-2---3---0---2--2222-2222-| (2:18-2:38)
A-0---3---0---2--2222-2222-|
D-x---3---0---2--2222-2222-|
                      ....


Chorus
e----------------------------------|
B----------------------------------|
G----------------------------5-7-5-| Repeat 7x (2:39-3:13)
D-3-3--5-5--5-7-5-7-5-7-5-7--------|
A-3-3--5-5--5-7-5-7-5-7-5-7--------|
D-3-3--5-5--5-7-5-7-5-7-5-7--------|


e----------0-0-0-0-------------|
B----------3-3-3-3-------------|
G----------2-0-2-0-------------|
D-3333/555-0-0-0-| (3:14-3:21-|
A-3333/555-0-0-0--------------|
D-3333/555-0-0-0--------------|

Break-Down
e-------------------|
B-------------------|
G-------------------|
D-7-1-0--x----------| Repeat as needed (3:22-3:31)
A-7-1-0--x----------|
D-7-1-0--x----------|
         Muted Strum

Verse
e-0--0--x--0-|
B-1--0--6--3-|
G-2--2--5--2-| (3:32-3:41)
D-2--2--3--0-|
A-0--0--3--0-|
D-x--x--3--0-|
           Ring out

I haven't figured out all the lead work yet. I'm getting around to that sometime soon. 
rhthym is obviously not tabbed out in most places. Listen to the sing and you'll 
what needs to happen rhythmically. Enjoy. And leave comments.
Tap to rate this tab
# A B C D E F G H I J K L M N O P Q R S T U V W X Y Z