Song name
# A B C D E F G H I J K L M N O P Q R S T U V W X Y Z

Fuel - Sunburn tab

Artist: Fuel
Song: Sunburn
Album: Sunburn

Paki rate na lang po, if you have question or comments pls email me at ebanog@gmail.com

Intro
E----------x-0~-------------------------------------0--x--0~---------|
B---3--3---x-2~----2--------3------2----------3-3-3----x--2~---------|
G---0----0-x-0~---------------0-------0-------0--------x-0~---------| 2x
D---2------x-2~--------2/4------2-------2-----2--------x--2~---------|
A---2------x-0~--0----------------------------2------- x-0~---------|
E-0--------x--------------------------------0----------x-------------|

Verse
E----------x-0--------------------------------------0--x--0-------------------------|
B---3--3---x-2-----2--------3------2----------3-3-3----x--2------2--------3---5h3---|
G---0---0--x-0----------------0-------0-------0--------x--0-----------------0-----0-|
D---2------x-2---------2/4------2-------2-----2--------x--2----------2/4------------|
A---2------x-0---0----------------------------2--------x--0---0---------------------|
E-0--------x--------------------------------0----------x----------------------------|

E----------x-0--------------------------------------0--x--0-------------------------|
B---3--3---x-2-----2--------3------2----------3-3-3----x--2------2(2)h0------------|
G---0---0--x-0----------------0-------0-------0--------x--0-------------------0-----|
D---2------x-2---------2/4------2-------2-----2--------x--2-------------------------|
A---2------x-0---0----------------------------2------- x--0---0-----------3/5-------|
E-0--------x--------------------------------0----------x----------------------------|

Pre-chorus										dist.
E------------------------------------------------------------------|
B---------0---------------------0----------------------------------|
G------0-------------0-------0-----0----------0--------------------|
D------0---------------------0-------------------------------------|
A-5\3-----------3/5-----5\3--------------3/5------5\---------------|
E------------------------------------------------------------------|
									p.m.....
Chorus
E-0-0-x-3-x-0--0--0----0--0-x-3-x-0--0--0-------------------|
B-0-0-x-3-x-3---3--3---1--1-x-3-x-3---3--3------------------|
G-0-0-x-0-x-2----2--2--2--2-x-0-x-2----2--2-----------------|
D-2-2-x-2-x-0--------0-2--2-x-2-x-0--------0----------------|
A-2-2-x-3-x------------0--0-x-3-x---------------------------|
E-0-0-x---x-----------------x---x---------------------------|
										clean
E-0-0-x-3-x-0--0--------------------------------------------------------------|
B-0-0-x-3-x-3---3--3-----------------0----0------0----------0----0------------|
G-0-0-x-0-x-2----2--------0-------0--------------0-------0--------------0-----|
D-2-2-x-2-x-0---------------------0----------------------0--------------------|
A-2-2-x-3-x-----------3/5----5\3-------------3/5----5\3-------------3/5---5\--|
E-0-0-x---x-------------------------------------------------------------------|






Bridge
E-0--0-0-0-0-0-0--0--0--0-0-0-0------|
B-1--1-1-1-1-1-1--0--0--0-0-0-0------|
G-2--2-2-2-2-2-2--0--0--0-0-0-0------|
D-2--2-2-2-2-2-2--2--2--2-2-2-2------|
A-0--0-0-0-0-0-2--2--2--2-2-2-2------|
E------------------0--0--0-0-0-0---3-|x then

E-3--3-3-3-3-3-0--0--0---0-0-0-2---|
B-3--3-3-3-3-3-3--3--3---3-3-3-3---|
G-0--0-0-0-0-0-2--2--2---2-2-2-2---|
D-2--2-2-2-2-2-0--0--0---0-0-0-0---|
A-3--3-3-3-3-3---------------------|
E----------------------------------|

Solo:

E----------x-0--------------------------------------0--x--0-------------------------|
B---3--3---x-2-----2--------3------2----------3-3-3----x--2------2--------3---5h3---|
G---0---0--x-0----------------0-------0-------0--------x--0-----------------0-----0-|
D---2------x-2---------2/4------2-------2-----2--------x--2----------2/4------------|
A---2------x-0---0----------------------------2--------x--0---0---------------------|
E-0--------x--------------------------------0----------x----------------------------|

E----------x-0~-------------------------------------0--x--0~---------|
B---3--3---x-2~----2--------3------2----------3-3-3----x--2~---------|
G---0----0-x-0~---------------0-------0-------0--------x-0~---------|
D---2------x-2~--------2/4------2-------2-----2--------x--2~---------|
A---2------x-0~--0----------------------------2------- x-0~---------|
E-0--------x--------------------------------0----------x-------------|

E-3--3-3-3-3-3-3-------------------|
B-3--3-3-3-3-3-3--3----------------|
G-0--0-0-0-0-0-0--2----------------|
D-2--2-2-2-2-2-2--0----------------|
A-3--3-3-3-3-3-3--0----------------|
E----------------------------------|

Outro

E-------------0---------------------------------------------------------------|
B------------------3-----------------0----0------0----------0----0------------|
G-------------------------0-------0--------------0-------0--------------------|
D---------------------------------0----------------------0--------------------| 4x
A---------------------3/5----5\3-------------3/5----5\3-----------------------|
E-----------------------------------------------------------------------------|

                                             E-------------3------------------|
                                             B--------------3-----------------|
                                             G-------------0------------------|
                                             D-----------2--2-----------------|
                                             A--------3--3--3-----------------|
                                             E--------------------------------|

END
Tap to rate this tab
 
# A B C D E F G H I J K L M N O P Q R S T U V W X Y Z