Song name
# A B C D E F G H I J K L M N O P Q R S T U V W X Y Z

Fuel - Innocent tab

Fuel- "Innocent"
Standard Tuning

The chords are all correct but listen to the recording to get the strumming
patterns right.

The guitar solo has two lead guitar playing and one rhythm guitar.

Intro/Verse
e-|-------------------------0--0--0----0-------------------------|
B-|--8--8-8-8-8-8--8/10\8---7--7--5----5-------------------------|
G-|--0--0-0-0-0-0--0/  \0---0--0--0----0-------------------------|
D-|--9--9-9-9-9-9--9/11\9---7--7--5----5-------------------------|
A-|--7--7-7-7-7-7--7/9 \7---5--5--3----3-------------------------|
E-|--0----------0------------------------------------------------|

2nd Guitar
e-|----------------------------------------|
B-|----------------------0-----------------|
G-|-------0------2-------------------------|
D-|---2--------------------------4b5r4p2---|
A-|----------------------------------------|
E-|----------------------------------------|


Chorus
e-|--3--3-3-3-3-3--2--3--2--3--3-3-3-3-3--2--3--2------------------------|
B-|--3--3-3-3-3-3--3--3--3--3--3-3-3-3-3--3--3--3------------------------|
G-|--0--0-0-0-0-0--2--0--2--0--0-0-0-0-0--2--0--2------------------------|
D-|--3--3-3-3-3-3--0--0--0--3--3-3-3-3-3--0--0--0------------------------|
A-|--2--2-2-2-2-2--X--X--X--2--2-2-2-2-2--X--X--X------------------------|
E-|----------------2--3--2----------------2--3--2------------------------|

e-|--3--3-3-3-3-3--0--0--0----0---0---0-0---0--|
B-|--3--3-3-3-3-3--0--0--0----0---0---0-0---0--|
G-|--0--0-0-0-0-0--6--6--6----9---9---9/11--11-|
D-|--3--3-3-3-3-3--x--x--x---10--10--10/12--12-|
A-|--2--2-2-2-2-2--7--7--7---10--10--10/12--12-|
E-|----------------5--5--5----8---8---8/10--10-|

Bridge
e-|----------------------------------------------------------------------|
B-|----------------------------------------------------------------------|
G-|----------------------------------------------------------------------|
D-|-2-2-2-2-2-2-2-2-2-2-2-2----------------------------------------------|
A-|-2-2-2-2-2-2-2-2-2-2-2-2-------0--------------------------------------|
E-|-0-0-0-0-0-0-0-0-0-0-0-0-0-2-3----------------------------------------|


Solo (rhythm guitar)
e-|--------------------------------------------------------------------|
B-|-3-3-3-3-3-3-3-3-3-3-3-3----------3-3-3-3-3-3-3-3-3-3-3-3-----------|
G-|-0-0-0-0-0-0-0-0-0-0-0-0----------0-0-0-0-0-0-0-0-0-0-0-0-----------|
D-|-2-2-2-2-2-2-2-2-2-2-2-2----------2-2-2-2-2-2-2-2-2-2-2-2-----------|
A-|-3-3-3-3-3-3-3-3-3-3-3-3-------0--3-3-3-3-3-3-3-3-3-3-3-3-------0---|
E-|-------------------------0-2-3----------------------------0-2-3-----|

e-|-2-2-2-2-2-2-2-2-2-2-2-2----------2-2-2---2-2-2-2--|
B-|-3-3-3-3-3-3-3-3-3-3-3-3----------3-3-3---0-0-0-0--|
G-|-2-2-2-2-2-2-2-2-2-2-2-2----------2-2-2---2-2-2-2--|
D-|-0-0-0-0-0-0-0-0-0-0-0-0----------0-0-0---1-1-1-1--|
A-|-------------------------------0----------2-2-2-2--|
E-|-------------------------0-2-3---------------------|


Solo (1st guitar)
e-|-------------------------------------------------------------------|
B-|--------8-----8\7-----/7----8-------------8\7-------------15-------|
G-|------------7---------------------------7--------------------------|
D-|-------------------------------------------------------------------|
A-|-------------------------------------------------------------------|
E-|-------------------------------------------------------------------|
Solo (2nd guitar)
e-|-------------------------------------------------------------------|
B-|-------------------------------------------------------------------|
G-|-------------------------------------------------------------------|
D-|--5b(7)----------5---4------5b(7)r5b(7)------5--4--5-4v----2-------|
A-|-------------------------------------------------------------------|
E-|-------------------------------------------------------------------|

Solo continued (1st guitar)
e-|-17-----17b(19)r17--16v------14/16----17v-----17b(19)r17---14v-----|
B-|-------------------------------------------------------------------|
G-|-------------------------------------------------------------------|
D-|-------------------------------------------------------------------|
A-|-------------------------------------------------------------------|
E-|-------------------------------------------------------------------|
Solo continued (2nd guitar)
e-|-2--------------------------------------2--------------------------|
B-|---3--------------------------------------3------------------------|
G-|-----2--------------------------------------2----------------4-----|
D-|-------------------------------------------------------------------|
A-|-------------------------------------------------------------------|
E-|-------------------------------------------------------------------|

2:50- After the final chorus
e-|--0--0---0--0---0---0---0---0---0---0---0------0-|
B-|--0--0---0--0---0---0---0---0---0---0---0------0-|
G-|--6--6---9--9--11--11--11--11--11--11--11-----11-|
D-|--7--7--10-10--10--12--12--12--12--12--12-----12-|
A-|--7--7--10-10--10--12--12--12--12--12--12-----12-|
E-|--5--5---8--8--10--10--10--10--10--10--10-----10-|
        "...or that we'd be bought and sold..."


Outro- Same as Intro/verse riff
Tap to rate this tab
 
# A B C D E F G H I J K L M N O P Q R S T U V W X Y Z