Song name
# A B C D E F G H I J K L M N O P Q R S T U V W X Y Z

Fuel - Sunburn tab

Fuel
"Sunburn"
From the album "Sunburn"
Tab by Joe Costello (jcostello86@gmail.com)

Standard Tuning: (E A D G B e)

Symbols used:
=============
h = hammer-on
p = pull-off
9b(11) = bend 9th fret to the pitch of the 11th
9b(11)r = bend 9th fret to the pitch of the 11th, then release bend
v = vibrato
/ = slide 
* = hold note

Intro: Riff 1
(Use a flanger or phaser to get the tone down)			
								      (2x)
e|-----0-------0--0-0-----------------|-----------0---0------------------|
B|-------3-----2--2-2----3-----2------|----3-3-3------2------------------|
G|--0------0---0--0-0------0-----0----|---------------0------------------|
D|--2----------2--2-2-3/4*---------2--|--2------------2------------------|
A|--2----------0--0-0-----------------|--2------------0------------------|
E|--0---------------------------------|--0-------------------------------|

Verse: Riff 2
e|-----0-------0--0-0-----------------|-----------0---0--0-0-------------|
B|-------3-----2--2-2----3-----2------|----3-3-3------2--2-2-3-----2-----|
G|--0------0---0--0-0------0-----0----|---------------0--0-0---0-----0---|
D|--2----------2--2-2-3/4*---------2--|--2------------2--2-2-----4-----2-|
A|--2----------0--0-0-----------------|--2------------0--0-0-------------|
E|--0---------------------------------|--0-------------------------------|

e|-----0-------0--0-0-----------------|-----------0---0------------------|
B|-------3-----2--2-2----3-----2------|----3-3-3------2------------------|
G|--0------0---0--0-0------0-----0----|---------------0------------------|
D|--2----------2--2-2-3/4*---------2--|--2------------2------------------|
A|--2----------0--0-0-----------------|--2------------0------------------|
E|--0---------------------------------|--0-------------------------------|

Pre-Chorus: 
		 (2x)
e|---------------0---|--------------------------------------------|
B|---------------0---|--------------------------------------------|
G|---------------0--*|--------------------------------------------|
D|--2-2/4--2--2--2--*|--2-2/4--2-2-2-2-2-2-2-2/4-4-4-4-4-4-4-4-4--|
A|--3-3/5--3--3--3---|--3-3/5--3-3-3-3-3-3-3-3/5-5-5-5-5-5-5-5-5--|
E|-------------------|--------------------------------------------|
		      "And I cursed the sky and begged the sun to"

Chorus 1:
(with distortion)
e|-------------0--0-----0------|--0--0----2--2--0-----0------|
B|-------------3----3-----3----|--1--1----3--3----3-----3----|
G|--0--0----0--2------2-----2--|--0--0----2--2------2-----2--|
D|--2--2----2--0---------------|--2--2----0--0---------------|
A|--2--2----3------------------|--0--0-----------------------|
E|--0--0-----------------------|-----------------------------|

					     (3x)
e|-------------0--0---------|---------------0---|
B|-------------3----3-------|---------------0---|
G|--0--0----0--2------2-----|---------------0--*|
D|--2--2----2--0------------|--2-2/4--2--2--2--*|
A|--2--2----3---------------|--3-3/5--3--3--3---|
E|--0--0--------------------|-------------------|

2nd Verse: Play Riff 2.
Play the Pre-Chorus riff.

Chorus 2:
e|-------------0--0-----0------|--0--0----2--2--0-----0------|
B|-------------3----3-----3----|--1--1----3--3----3-----3----|
G|--0--0----0--2------2-----2--|--0--0----2--2------2-----2--|
D|--2--2----2--0---------------|--2--2----0--0---------------|
A|--2--2----3------------------|--0--0-----------------------|
E|--0--0-----------------------|-----------------------------|

					    (2x)
e|-------------0--0---------|---------------0---|--------------------------------------------|
B|-------------3----3-------|---------------0---|--------------------------------------------|
G|--0--0----0--2------2-----|---------------0--*|--------------------------------------------|
D|--2--2----2--0------------|--2-2/4--2--2--2--*|--2-2/4--2-2-2-2-2-2-2-2/4-4-4-4-4-4-4-4-4--|
A|--2--2----3---------------|--3-3/5--3--3--3---|--3-3/5--3-3-3-3-3-3-3-3/5-5-5-5-5-5-5-5-5--|
E|--0--0--------------------|-------------------|--------------------------------------------|

Bridge:
     Am			   Em		     (3x)
e|---0--0-0--0-0--0-0--0---0--0-0--0-0--0-0--0---|
B|---1--1-1--1-1--1-1--1---0--0-0--0-0--0-0--0---|
G|---2--2-2--2-2--2-2--2---0--0-0--0-0--0-0--0--*|
D|---2--2-2--2-2--2-2--2---2--2-2--2-2--2-2--2--*|
A|---0--0-0--0-0--0-0--0---2--2-2--2-2--2-2--2---|
E|-------------------------0--0-0--0-0--0-0--0---|

    C		     D			
e|--0-0-0-0-0-0-0-0--0-0-0-0-0-0-0-0-0----|
B|--1-1-1-1-1-1-1-1--3-3-3-3-3-3-3-3-3----|
G|--0-0-0-0-0-0-0-0--0-0-0-0-0-0-0-0-0----|
D|--2-2-2-2-2-2-2-2--4-4-4-4-4-4-4-4-4----|
A|--3-3-3-3-3-3-3-3--5-5-5-5-5-5-5-5-5----|
E|----------------------------------------|

Solo:
e|-----------------------------------------------------------------------------------------|
B|-----------------------------------------------------------------------------------------|
G|---9b(11)v------7h9-9b(11)r-9b(11)r--7h9p7--7p6-7-9-7-6--6-7p6---------------------------|
D|---------------------------------------------------------------7/9-7--5h7p5--5h7-5-------|
A|------------------------------------------------------------------------------------7v---|
E|-----------------------------------------------------------------------------------------|

e|-------------------------------------------------------------------------------------------------|
B|-------------------------------------------------------------------------------------------------|
G|--14b(16)v-----12-14-12-14b(16)r-12p11---11h12-12-12-11h12-12-12-11h12p11------------------------|
D|--------------------------------------------------------------------------12-12/14v-14-14-14-14--|
A|-------------------------------------------------------------------------------------------------|
E|-------------------------------------------------------------------------------------------------|

(with distortion)
e|-------------------------------15b(17)--15b(17)--12h15p12-----------12----------|
B|---15b(17)--15b(17)----15p12------------------------------15b(17)------15-15p12-|
G|--------------------------------------------------------------------------------|
D|--------------------------------------------------------------------------------|
A|--------------------------------------------------------------------------------|
E|--------------------------------------------------------------------------------|

e|----------------------------------------------------------------------------|
B|--12----12----12----12----12------------------------------------------------|
G|-----15----15----15----15----15--14-12v---------12h14--16b(18)--16b(18)v----|
D|------------------------------------------12h14-----------------------------|
A|----------------------------------------------------------------------------|
E|----------------------------------------------------------------------------|

e|---------------------------------------------------------------------------------------|
B|-----------------------------------------15b(17)-15b(17)-15b(17)-15b(17)-15b(17)-15v---|
G|--16b(18)r-16-15-14/12-14-12-----------------------------------------------------------|
D|-----------------------------12h14p12--------------------------------------------------|
A|---------------------------------------------------------------------------------------|
E|---------------------------------------------------------------------------------------|

Rythym Guitar during solo:
Play Riff 2 (2x)

Then play:
Riff 3:		  (4x)
e|---------------0---|
B|---------------3---|
G|--0--0----0----2--*|
D|--2--2----2----0--*|
A|--2--2----3--------|
E|--0--0-------------|

End on:
e|--0-0-0-0-0-0-0-0--0-0-0-0-0-0-0-0-0----|
B|--1-1-1-1-1-1-1-1--3-3-3-3-3-3-3-3-3----|
G|--0-0-0-0-0-0-0-0--0-0-0-0-0-0-0-0-0----|
D|--2-2-2-2-2-2-2-2--4-4-4-4-4-4-4-4-4----|
A|--3-3-3-3-3-3-3-3--5-5-5-5-5-5-5-5-5----|
E|----------------------------------------|


Then both guitars play the Chorus.

Lead over last chorus:
e|-----------------------------------------|
B|-----------------------------------------|
G|---12p11-11-11-11/9-9-9-9/7-7-7-7/9-9v---|
D|-----------------------------------------|
A|-----------------------------------------|
E|-----------------------------------------|

e|------------------------------------------------|
B|------------------------------------------------|
G|---12p11-11-11-11/9-9-9-9/7-7-7-7/4-4h5p4--4v---|
D|------------------------------------------------|
A|------------------------------------------------|
E|------------------------------------------------|

e|--------------------------------------------------3-|
B|--------------------------------------------------3-|
G|-12p11-11-11-11/9-9-9-9/7-7-7-7/9-7-5-4-5-4-2-0---0-| 
D|----------------------------------------------------|
A|----------------------------------------------------|
E|----------------------------------------------------|

And that's it. If there's any comments, questions, corrections, etc, e-mail me. 

-Joe
Tap to rate this tab
 
# A B C D E F G H I J K L M N O P Q R S T U V W X Y Z