Song name
# A B C D E F G H I J K L M N O P Q R S T U V W X Y Z

Fuel - Last Time tab

Fuel
Last Time

Drop D


Intro: 

 Rythm
|------------------------------------------------------------------------|
|------------------------------------------------------------------------|
|------------------------------------------------------------------------|
|-11-11-11-1111-11--11-11-11-1111-11--11-11-11-1111-11--11-11-11-1111-11-|
|--9--9--9--9-9--9---9--9--9--9-9--9---9--9--9--9-9--9---9--9--9--9-9--9-|
|--9--9--9--9-9--9---0--0--0--0-0--0---9--9--9--9-9--9---0--0--0--0-0--0-|

 Rythm
|----------------------------------------------------------------------------|
|----------------------------------------------------------------------------|
|----------------------------------------------------------------------------|
|-11-11-11-1111-11--11-11-11-1111-11--11-11-11-1111-11--11-11-11-1111-11--11-|
|--9--9--9--9-9--9---9--9--9--9-9--9---9--9--9--9-9--9---9--9--9--9-9--9---9-|
|--9--9--9--9-9--9---0--0--0--0-0--0---9--9--9--9-9--9---0--0--0--0-0--0---0-|
|
|
|Lead - wah
|--------------------------------------------------------------------------|
|--------------------------------------------------------------------------|
|-11-11-11-1111-11b-11-11-11-1111-11b-11-11-11-1111-11b-11-11-11-1111-11b/-|
|--------------------------------------------------------------------------|
|--------------------------------------------------------------------------|
|--------------------------------------------------------------------------|


Verse: 
 
 Rythm
|--------------------------------------------------|
|--------------------------------------------------|    
|--------------------------------------------------|   
|-11--11--11--11--11--------2-2-2-22-2--2-2-2-22-2-|
|--9---9---9---9---9--------2-2-2-22-2--2-2-2-22-2-|
|--9---0---9---0---9--12/2--2-2-2-22-2--2-2-2-22-2-|   

 Rythm
|------------------------------------------------------------------------|
|------------------------------------------------------------------------|
|------------------------------------------------------------------------|
|-11-11-11-1111-11--11-11-11-1111-11--11-11-11-1111-11--11-11-11-1111-11-|
|--9--9--9--9-9--9---9--9--9--9-9--9---9--9--9--9-9--9---9--9--9--9-9--9-|
|--9--9--9--9-9--9---0--0--0--0-0--0---9--9--9--9-9--9---0--0--0--0-0--0-|
|
|
|Lead - wah
|-------------------------------------------------------------------------|
|-------------------------------------------------------------------------|
|-11-11-11-1111-11b-11-11-11-1111-11b-11-11-11-1111-11b-11-11-11-1111-11b-|
|-------------------------------------------------------------------------|
|-------------------------------------------------------------------------|
|-------------------------------------------------------------------------|

 Rythm
|------------------------------------|
|------------------------------------|
|------------------------------------|
|-11-11-11-1111-11--11-11-11-1111-11-|
|--9--9--9--9-9--9---9--9--9--9-9--9-|
|--9--9--9--9-9--9---0--0--0--0-0--0-|
|
|
|Lead - wah
|------------------------------------|
|------------------------------------|
|-11-11-11-1111-11b-11-11-11-1111-11b|
|------------------------------------|
|------------------------------------|
|------------------------------------|


Chorus: 

 Rythm
|-------------------------------|
|-------------------------------|
|-------------------------------|
|--0-4-4-4-0-4-4-0----0-4-4-2~~-|
|--0-4-4-4-0-4-4-0----0-4-4-2~~-|
|--0-4-4-4-0-4-4-0----0-4-4-2~~-|
|
|
|Lead - wah
|-------------------|---------------|
|---10-10--10-10----|--10----9h10h9-|
|-11-----11---------|11---11--------|
|-------------------|---------------|
|-------------------|---------------|
|-------------------|---------------|

 Rythm
|----------------------|
|----------------------|
|----------------------|
|----------------------|
|-----0-4br-2-0--------|
|-0-4-----------4-0~/8-|

 Rythm
|------------------------------------------------------------------------|
|------------------------------------------------------------------------|
|------------------------------------------------------------------------|
|-11-11-11-1111-11--11-11-11-1111-11--11-11-11-1111-11--11-11-11-1111-11-|
|--9--9--9--9-9--9---9--9--9--9-9--9---9--9--9--9-9--9---9--9--9--9-9--9-|
|--9--9--9--9-9--9---0--0--0--0-0--0---9--9--9--9-9--9---0--0--0--0-0--0-|
|
|
|Lead - wah
|--------------------------------------------------------------------------|
|--------------------------------------------------------------------------|
|-11-11-11-1111-11b-11-11-11-1111-11b-11-11-11-1111-11b-11-11-11-1111-11b/-|
|--------------------------------------------------------------------------|
|--------------------------------------------------------------------------|
|--------------------------------------------------------------------------|


Verse:

 Rythm
|-------------------------------------------------------------------------------|
|-------------------------------------------------------------------------------|
|-----11--11-------11--11-------11--11-------11--11-------11--11-------11-------|
|-11---x---x---11---x---x---11---x---x---11---x---x---11---x---x---11---x-------|
|--9---x---x----9---x---x----9---x---x----9---x---x----9---x---x----9---x-------|
|--9---9*--9*---9---9*--9*---9---9*--9*---9---9*--9*---9---9*--9*---9---9*--12/-|


 Rythm
|------------------------------------------------------------------------|
|------------------------------------------------------------------------|
|------------------------------------------------------------------------|
|-11-11-11-1111-11--11-11-11-1111-11--11-11-11-1111-11--11-11-11-1111-11-|
|--9--9--9--9-9--9---9--9--9--9-9--9---9--9--9--9-9--9---9--9--9--9-9--9-|
|--9--9--9--9-9--9---0--0--0--0-0--0---9--9--9--9-9--9---0--0--0--0-0--0-|
|
|
|Lead - wah
|-------------------------------------------------------------------------|
|-------------------------------------------------------------------------|
|-11-11-11-1111-11b-11-11-11-1111-11b-11-11-11-1111-11b-11-11-11-1111-11b-|
|-------------------------------------------------------------------------|
|-------------------------------------------------------------------------|
|-------------------------------------------------------------------------|

 Rythm
|------------------------------------|
|------------------------------------|
|------------------------------------|
|-11-11-11-1111-11--11-11-11-1111-11-|
|--9--9--9--9-9--9---9--9--9--9-9--9-|
|--9--9--9--9-9--9---0--0--0--0-0--0-|
|
|
|Lead - wah
|------------------------------------|
|------------------------------------|
|-11-11-11-1111-11b-11-11-11-1111-11b|
|------------------------------------|
|------------------------------------|
|------------------------------------|


-Chorus-


Bridge: 

 Rythm
|------------------------------|
|------------------------------|
|------------------------------|
|-0-0-0-0-0-0-0-0-0-0-0-0-0--0-|
|-0-0-0-0-0-0-0-0-0-0-0-0-0--0-|
|-0-0-0-0-0-0-0-0-0-0-0-0-0--0-|
PM.......................
|
|
|Lead
|-----------------------------|
|-----------------------------|
|-----------------------------|
|-x-x-x-x-x-x-x-x-x-x-x-x-x-x-|
|-x-x-x-x-x-x-x-x-x-x-x-x-x-x-|
|-x-x-x-x-x-x-x-x-x-x-x-x-x-x-|

 Rythm
|-------------------------|
|-------------------------|
|-------------------------|
|-0-0-0-0-0-0-0-0-0-0-0-0-|
|-0-0-0-0-0-0-0-0-0-0-0-0-|
|-0-0-0-0-0-0-0-0-0-0-0-0-|
PM.......................
|
|
|Lead
|-------------------------|
|-------------------------|
|-------------------------|
|-x-x-x-x-x-x-x-x-x-x-x-x-|
|-x-x-x-x-x-x-x-x-x-x-x-x-|
|-x-x-x-x-x-x-x-x-x-x-x-x-|

x2


-Chorus-

Solo: 

 Rythm
|------------------------------------------------------------------------|
|------------------------------------------------------------------------|
|------------------------------------------------------------------------|
|-11-11-11-1111-11--11-11-11-1111-11--11-11-11-1111-11--11-11-11-1111-11-|
|--9--9--9--9-9--9---9--9--9--9-9--9---9--9--9--9-9--9---9--9--9--9-9--9-|
|--9--9--9--9-9--9---0--0--0--0-0--0---9--9--9--9-9--9---0--0--0--0-0--0-| x4
|
|
|Lead - wah
|-/7~b---5-----5-----5-----9b-9-9b--9-9br~--/12b~-|
|-----------7-----7-------------------------------|
|-------------------------------------------------|
|-------------------------------------------------|
|-------------------------------------------------|
|-------------------------------------------------|


Outro: 

 Rythm
|----------|
|----------|
|----------|
|-0~~~4~2~-|
|-0~~~4~2~-|
|-0~~~4~2~-| x4

 Rythm
|----------|
|----------|
|----------|
|-0~~~4~2~-|
|-0~~~4~2~-|
|-0~~~4~2~-| x8
|
|
|Lead - wah
|----------------|----------------|-16-16h17p16-19-|
|----------------|-14-14h15p14-17-|----------------|
|-13-13h14p13-16-|----------------|----------------|
|----------------|----------------|----------------|
|----------------|----------------|----------------|
|----------------|----------------|----------------|
               x4               x1               x3
Tap to rate this tab
# A B C D E F G H I J K L M N O P Q R S T U V W X Y Z