Guitaretab - guitar tabs
Song name
# A B C D E F G H I J K L M N O P Q R S T U V W X Y Z

Fuel - Walk The Sky tab

Artist: Fuel
Title:  Walk The Sky(Godzilla Sound Track)
By:     Nick McGill
E-Mail: mrgrassgrows@hotmail.com

Intro
e|---------------------------------------------------------------------|
B|-9^-11-9-11-9--------11-9-11-9-------11-9-11-9------11^11^11-------|
G|-9^-10-9-10-9-10^9---10-9-10-9-10^9--10-9-10-9-10^9----9---9---10-9~-|
D|---------------------------------------------------------------------|
A|---------------------------------------------------------------------|
E|---------------------------------------------------------------------|

Pre-Chorus	
e|--------------------------------|
B|--------------------------------|
G|-5--5--5--3---5--5--5-----------|
D|-5--5--5--3---5--5--5-----------|
A|-3--3--3--1---3-3--3-1~~or-3~--|
E|--------------------------------|

Chorus	
 Gtr.1
e|---------------------------------|
B|--------------------5--5-5-5-----|
G|-5--5--5-5--3--3-3--5--5-5-5-----|
D|-5--5--5-5--3--3-3--3--3-3-3-----|
A|-3--3--3-3--1--1-1---------------|
E|---------------------------------|
 |Gtr.2				   |
e|---------------------------------|
B|---------------------------------|
G|-5-----5----3----3--10----10-----|
D|-5--5----5--3--3----10-10----10--|
A|-3----------1-------8------------|
E|---------------------------------|

Fill
e|---------------------------------------------------------------------|
B|-9^-11-9-11-9--------11-9-11-9-------11-9-11-9------11^11^11-------|
G|-9^-10-9-10-9-10^9---10-9-10-9-10^9--10-9-10-9-10^9----9---9---10-9~-|
D|---------------------------------------------------------------------|
A|---------------------------------------------------------------------|
E|---------------------------------------------------------------------|
[ Tab from: http://www.guitaretab.com/f/fuel/29166.html ]
Fill
e|--------|
B|^^-----|
G|-12-/-9-|
D|--------|
A|--------|
E|--------|

Pre-Chorus	
e|--------------------------------|
B|--------------------------------|
G|-5--5--5--3---5--5--5-----------|
D|-5--5--5--3---5--5--5-----------|
A|-3--3--3--1---3-3--3-1~~or-3~--|
E|--------------------------------|

Chorus	
 Gtr.1
e|---------------------------------|
B|--------------------5--5-5-5-----|
G|-5--5--5-5--3--3-3--5--5-5-5-----|
D|-5--5--5-5--3--3-3--3--3-3-3-----|
A|-3--3--3-3--1--1-1---------------|
E|---------------------------------|
 |Gtr.2				   |
e|---------------------------------|
B|---------------------------------|
G|-5-----5----3----3--10----10-----|
D|-5--5----5--3--3----10-10----10--|
A|-3----------1-------8------------|
E|---------------------------------|

Bridge	(X15)
e|---------|--------|
B|-----5---|---5----|
G|-------5-|o---5--o|
D|-3-3-----|o-3----o|
A|---------|--------|
E|---------|--------|

??Solo??(Working On It)

Chorus	
 Gtr.1
e|---------------------------------|
B|--------------------5--5-5-5-----|
G|-5--5--5-5--3--3-3--5--5-5-5-----|
D|-5--5--5-5--3--3-3--3--3-3-3-----|
A|-3--3--3-3--1--1-1---------------|
E|---------------------------------|
 |Gtr.2				   |
e|---------------------------------|
B|---------------------------------|
G|-5-----5----3----3--10----10-----|
D|-5--5----5--3--3----10-10----10--|
A|-3----------1-------8------------|
E|---------------------------------|

Please E-mail me with any corrections, fills, the solo.
This is the only tab out there for this song so don't whine if you think it's incorrect.
It's my first tab, so please e-mail me with what you think.
And if anyone has the complete tab for the Black Halos "somethings never fall" i'd like it.
Related for Walk The Sky tab