Song name
# A B C D E F G H I J K L M N O P Q R S T U V W X Y Z

Fuel - These Things tab

                                            THESE THINGS
                                                FUEL
All guitars Drop Db

Am7: x02213
D: 000232

Intro: Am7  D

Verses 1 and 2
Am7  D

(Gtr.1)
"These things have I"
G6    E/G           Am
----0------0----------------------------------------|
-0--0------0----------------3-----1---0---0-1-0-1---|
-4--4--5---4--------------2-------------------2-----|
-5-----6---6------------2------2----2---2-----------|
----------------------0-----------------------------|
-5-----6---6----------------------------------------|

(Gtr.2)
"These things have I"
------------------|
------------------|
------------------|
-5---5---2-----2--|
-5---5---2-----2--|
-5---5---2-----2--|

2nd verse electric guitar 2  w/distortion
"I have these words to lie to me....." (Repeat as needed)
--------------------------------------------------------------------------------|
--------------------------------------------------------------------------------|
--------------------------------------------------------------------------------|
-2---2---2---2---2---2---2---2---2----------------------------------------------|
-0---0---0---0---0---0---0---0---0--2---2---2---0---0---0---0---x---x-----------|
------------------------------------2---2---2---0---0---0---0---x---x-----------|


Yeah_____________(Guitar Solo)
-------------------------------------14---15------------------------------------|
----------------10-13-15--15---15-----------------------------------------------|
--------------12----------------------------------------------------------------|
----10-12-14--------------------------------------------------------------------|
-12-----------------------------------------------------------------------------|
--------------------------------------------------------------------------------|

-------15------15-----15--15---------(15)-14----14---(14)-14-15-14---------------|
--13-------13-----13---------------------------------------------------15---15---|
---------------------------------------------------------------------------------|
---------------------------------------------------------------------------------|
---------------------------------------------------------------------------------|
---------------------------------------------------------------------------------|

---------------------------------------------------------------------------------|
15--15--(15)-13-15-13--------------------------------------------17--------------|
-------------------------14----14/2/--14-16-17-16-17-19-17-19-------19-----------|
---------------------------------------------------------------------------------|
---------------------------------------------------------------------------------|
---------------------------------------------------------------------------------|

---------------------------------17------17--19--20--19--20----------------------|
-17--19--17--19--20--19--20------20----------------------------------------------|
---------------------------------------------------------------------------------|
---------------------------------------------------------------------------------|
---------------------------------------------------------------------------------|
---------------------------------------------------------------------------------|

-22---22---20-22-20------20------------15----------------------------------------|
------------------------22----22---15-15----15---(15)13----15-13-(13)12----------|
------------------------------------------------------------14-------------------|
---------------------------------------------------------------------------------|
---------------------------------------------------------------------------------|
---------------------------------------------------------------------------------|


----------------------------------------------------------------------------------|
--13-12-----------------13--------------------------------------------------------|
-----------14--12--14-------14---12-14-12----12-----------------------------------|
----------------------------------------------14-----14-12-14-12-10-12--10--------|
-------------------------------------------------------------------------------12-|
----------------------------------------------------------------------------------|


----------------------------------------------------------------------------------|
----------------------------------------------------------------------------------|
----------------------------------------------------------------------------------|
-10-----------------------10------------------------------------------------------|
-------12---10---12-------------12------------------------------------------------|
----------------------------------------------------------------------------------|

G5                  A5
for all these things i've done
C5(3rd frt)         E5
let you down i just apologize
F5               A5
but sorry's hard somehow
C5                      E5
seems so strange it'd be so easy now
A5                         E5    D5
but i've got this faith to blind me
A5                        E5    D5
and i've got the dreams we shared
                A5                                       E5    D5
and i have the fear that dreams are all i'll have thats left to me
G5          E5    F5           E5      F5      G5
these things        all these things       these things have i


--------------------------------------------------------------------------------|
--------------------------------------------------------------------------------|
-14--14--12--14--12-14-12---12--14--12------------------------------------------|
----------------------------------------------14-12--10----10---9---10--10------|
--------------------------------------------------------------------------------|
--------------------------------------------------------------------------------|

--------------------------------------------------------------------------------|
----------------------------------------------------------------------8---8--10-|
-------------------------------9---9---9---9----9---9---9---9---9----9----------|
-10---(10)-9---10----10/12------------------------------------------------------|
--------------------------------------------------------------------------------|
--------------------------------------------------------------------------------|

---------------------------------------------------------------------------------|
--10--12--10------10---12---13--13---13---13---15---15----15---15---15-----------|
----------------12---------------------------------------------------------------|
---------------------------------------------------------------------------------|
---------------------------------------------------------------------------------|
---------------------------------------------------------------------------------|

----------------------------------------------------------------------------------|
--15---15---15---(15)--15---15---15-17--17--17--17-18--18--18--18-----------------|
----------------------------------------------------------------------------------|
----------------------------------------------------------------------------------|
----------------------------------------------------------------------------------|
----------------------------------------------------------------------------------|

--15--15--15--15-12--15--15----------17-----(17)---17------17-/-19--19------------|
----------------------------------------------------------------------------------|
----------------------------------------------------------------------------------|
----------------------------------------------------------------------------------|
----------------------------------------------------------------------------------|
----------------------------------------------------------------------------------|

--20---20----20-----20---20---20----19--20--19--17--19--17-----17-----------------|
-------------------------------------------------------------------20-------------|
----------------------------------------------------------------------------------|
----------------------------------------------------------------------------------|
----------------------------------------------------------------------------------|
----------------------------------------------------------------------------------|

----------------------------------------------------------------------------------|
-20--18--20--18--17--18--17-----17------------------------------------------------|
--------------------------------19-----19--17--16---16--17--16/17--19---17--------|
----------------------------------------------------------------------------------|
----------------------------------------------------------------------------------|
----------------------------------------------------------------------------------|

----------------------------------------------------------------------------------|
-------------------------------------------------------------5--6--5--------------|
--16---17---16----14----14---12---14---12---(12)--10/9---------5---5--------------|
----------------------------------------------------------------------------------|
----------------------------------------------------------------------------------|
----------------------------------------------------------------------------------|

----------------------------------------------------------------------------------|
----------------------------------------------------------------------------------|
--5--7--5--7-7----(7)---5--7---5--------5-----5-----------------------------------|
------------------------------------7---7----7-----7--7--------------12-----------|
---------------------------------------------------------------12/14------14------|
----------------------------------------------------------14----------------------|

----------------------------------------------------------------------------------|
----------------------------------------------------------------------------------|
--12--14--14---------(14)--7------------------------------------------------------|
----------------------------------------------------------------------------------|
----------------------------------------------------------------------------------|
----------------------------------------------------------------------------------|
Tap to rate this tab
 
# A B C D E F G H I J K L M N O P Q R S T U V W X Y Z