Guitaretab - guitar tabs
Song name
# A B C D E F G H I J K L M N O P Q R S T U V W X Y Z

Fuel - Natural Selection tab

Band- Fuel
Album- Natural Selection

1.QUARTER
Tuning- Drop D

CHORDS:
D5: 000XXXX		Eb5: 111XXXX
F5: 333XXXX	        G5: 555XXXX	

INTRO: (0:00)
  D5
|------------------|-------------------|
|------------------|-------------------|
|------------------|-------------------|
|-0----------------|-------------------|
|-0----------------|-------------------|
|-0----------------|-------------------| Gtr. 1 (distortion)
| Hold
|
|------------------|-------------------|
|-10----------11---|-10----------11--/-|
|------------------|-------------------|
|------------------|-------------------|
|------------------|-------------------|
|------------------|-------------------|
Gtr. 2 (w/wah)

VERSE 1: (0:08)
      I know I'm dead before my time   I know it's coming down
  D5  F5     D5                    D5  C5     D5      G5
|--------------------------------|------------------------------|
|--------------------------------|------------------------------|
|--------------------------------|------------------------------|
|--------------------------0---0-|------------------------------|
|-0---3b-(3)-0-0-0---0-0---0-0-0-|-0---3b-(3)-0---0-0-----------|
|-0---3b-(3)-0-0-0---0-0---0-0-0-|-0---3b-(3)-0---0-0-5v~---(5)-|

If you could only see what's right, you'd see what's comin' round
  D5  F5     D5                    D5  F5     D5      G5
|--------------------------------|------------------------------|
|--------------------------------|------------------------------|
|--------------------------------|------------------------------|
|--------------------------0---0-|------------------------------|
|-0---3b-(3)-0-0-0---0-0---0-0-0-|-0---3b-(3)-0---0-0-----------|
|-0---3b-(3)-0-0-0---0-0---0-0-0-|-0---3b-(3)-0---0-0-5v~---(5)-|

CHORUS: (0:24)
 (So I,_______________)
                   walk alone, I ask no quarter 
  D5           Eb5        D5     F5      G5
|-----------------------|----------------------|
|-----------------------|----------------------|
|-----------------------|----------------------|
|-0--------0-0-1----1-1-|-0------3---3---5---5-|
|-0--------0-0-1----1-1-|-0------3---3---5---5-|
|-0--------0-0-1----1-1-|-0------3---3---5---5-|

 (I,__________________)
  friend           walk alone, till I find you
  D5           Eb5        D5     F5      G5
|-----------------------|----------------------|
|-----------------------|----------------------|
|-----------------------|----------------------|
|-0--------0-0-1----1-1-|-0------3---3---5---5-|
|-0--------0-0-1----1-1-|-0------3---3---5---5-|
|-0--------0-0-1----1-1-|-0------3---3---5---5-|

  again,_________    ________________
  D5
|------------------|-------------------|
|------------------|-------------------|
|------------------|-------------------|
|-0----------------|-------------------|
|-0----------------|-------------------|
|-0----------------|-------------------|
| Hold
|
|------------------|-------------------|
|-10----------11---|-10----------11--/-|
|------------------|-------------------|
|------------------|-------------------|
|------------------|-------------------|
|------------------|-------------------|

VERSE 2: (0:48)
      I know no place to call me bed but I know this thorny crown
  D5  F5     D5                    D5  F5     D5      G5
|--------------------------------|------------------------------|
|--------------------------------|------------------------------|
|--------------------------------|------------------------------|
|--------------------------0---0-|------------------------------|
|-0---3b-(3)-0-0-0---0-0---0-0-0-|-0---3b-(3)-0---0-0-----------|
|-0---3b-(3)-0-0-0---0-0---0-0-0-|-0---3b-(3)-0---0-0-5v~---(5)-|

If you could only feed your head, you'd see your hands are bound
  D5  F5     D5                    D5  F5     D5      G5
|--------------------------------|------------------------------|
|--------------------------------|------------------------------|
|--------------------------------|------------------------------|
|--------------------------0---0-|------------------------------|
|-0---3b-(3)-0-0-0---0-0---0-0-0-|-0---3b-(3)-0---0-0-----------|
|-0---3b-(3)-0-0-0---0-0---0-0-0-|-0---3b-(3)-0---0-0-5v~---(5)-|

CHORUS: (1:04)
 (So I,_______________)
                   walk alone, I ask no quarter 
  D5           Eb5        D5     F5      G5
|-----------------------|----------------------|
|-10-----------11-------|-10-------------------|
|-----------------------|----------------------|
|-----------------------|----------------------|
|-----------------------|----------------------|
|-----------------------|----------------------| Gtr. 2 (w/wah)

 (I,__________________)
  friend           walk alone, till I find you
  D5           Eb5        D5     F5      G5
|-----------------------|----------------------|
|-10-----------11-------|-10-----8-------6-----|
|-----------------------|----------------------|
|-----------------------|----------------------|
|-----------------------|----------------------|
|-----------------------|----------------------|

 again,______
      G5            Eb5
|---------------------------|
|---------------------------|
|---------------------------|
|-----------------------1-1-|
|-X-X-5---5-5---X-X-1---1-1-|
|-X-X-5---5-5---X-X-1---1-1-| (gtr. 1)

  D5
|------------------|-------------------|
|------------------|-------------------|
|------------------|-------------------|
|-0----------------|-------------------|
|-0----------------|-------------------|
|-0----------------|-------------------|
| Hold
|
|------------------|-------------------|
|-5----------5h6---|-5----------5h6--/-|
|------------------|-------------------|
|------------------|-------------------|
|------------------|-------------------|
|------------------|-------------------|

GUITAR SOLO: (1:32)
  D5  F5     D5            D5  F5     D5     
|------------------------|-------------------------------|
|-15-13-15---13-11-13-11-|-------------------------------|
|------------------------|-12h14p12-10h12p10-9h10p9\7----|
|------------------------|-------------------------------|
|------------------------|-------------------------------|
|------------------------|-------------------------------|

  D5  F5     D5                           D5  F5     D5
|---------------------------------------|-10---8---6---5----------|
|-12-12-11-11-9-9-7-7-5-5-4-4-2-2-2p0-0-|-----------------7h9p7v~-|
|---------------------------------------|-------------------------|
|---------------------------------------|-------------------------|
|---------------------------------------|-------------------------|
|---------------------------------------|-------------------------|

CHORUS: (1:48)
 (So I,_______________)
                   walk alone, I ask no quarter 
  D5           Eb5        D5     F5      G5
|--------------15-------|-14------15-----------|
|-10--------------14----|----14-------14-------|
|-----------------------|----------------------|
|-----------------------|----------------------|
|-----------------------|----------------------|
|-----------------------|----------------------| Gtr. 2 (w/wah)

  (I,__________________)
  friend           walk alone, till I find you
  D5           Eb5        D5     F5      G5
|-14------------15------|-14--------15-----17--|
|----14------------14---|----14----------------|
|-----------------------|----------------------|
|-----------------------|----------------------|
|-----------------------|----------------------|
|-----------------------|----------------------|

again,______
      G5            Eb5
|---------------------------|
|-15b---13---12-13-15-13----|
|---------------------------|
|---------------------------|
|---------------------------|
|---------------------------|

  D5
|------------------|-------------------|
|-10----------11---|-10----------11--/-|
|------------------|-------------------|
|------------------|-------------------|
|------------------|-------------------|
|------------------|-------------------|

INTERLUDE: Half-time Feel (2:16)
  D5
|--------------------------|----------------------------------|
|-15-15-15---13---11h13p11-|-10h11p10---8-8-6-10---6-6h8p6----|
|--------------------------|----------------------------------|
|--------------------------|----------------------------------|
|--------------------------|----------------------------------|
|--------------------------|----------------------------------|

   I walk alone               I walk alone
  D5     Eb5                 D5       Eb5
|--------------------------|----------------------------------|
|------8-10-11-10---8h10p8-|-10---8v~-------------------------|
|-8v~----------------------|----------------------------------|
|--------------------------|----------------------------------|
|--------------------------|----------------------------------|
|--------------------------|----------------------------------|

CHORUS: (2:32)
 (So I,_______________)
                        walk alone, I ask no quarter 
  D5           Eb5             D5     F5      G5
|--------------15---13h15p13-|-12h13p12-10h12p10---5h6h8-|
|----------------------------|---------------------------|
|-2v~------------------------|---------------------------|
|----------------------------|---------------------------|
|----------------------------|---------------------------|
|----------------------------|---------------------------|

 (I,__________________)
  friend            walk alone, till I find you
  D5          Eb5           D5     F5      G5
|-6-6---5-5---3-3---5-6-6-|------/13-13---15-----|
|-------------------------|-2v~------------------|
|-------------------------|----------------------|
|-------------------------|----------------------|
|-------------------------|----------------------|
|-------------------------|----------------------|

(2:48)
(So I,_______________)
 again                     walk alone, I ask no quarter 
  D5                   Eb5       D5     F5      G5
|-12------12---12---13------13-|-12-10-8-6-5-5b--------|
|----10-10---10---10---10-10---|-----------------------|
|------------------------------|-----------------------|
|------------------------------|-----------------------|
|------------------------------|-----------------------|
|------------------------------|-----------------------|

 (I,__________________)
  friend               walk alone, till I find you
  D5           Eb5                D5     F5      G5
|-15v~-12h13p12-12-13-12---15v~-|-5---6---5-5-6-6/7\6-5h6-|
|-------------------------------|-------------------------|
|-------------------------------|-------------------------|
|-------------------------------|-------------------------|
|-------------------------------|-------------------------|
|-------------------------------|-------------------------|

(3:04)
  again,                                              till I find you       
  (D5)
|---------------------------------|----------------------------------|
|---------------------------------|----------------------------------|
|---------------------------------|----------------------------------|
|---------------------------------|----------------------------------|
|---------------------------------|----------------------------------|
|-0-/12--10---7---8---7---5---3---|--0-/12--10---7---8---7---5---3---|
|
|
|----10---8---5---6---5---3---1---|-----10---8---5---6---3---1---3---|
|---------------------------------|--------------------------------3-|
|---------------------------------|----------------------------------|
|---------------------------------|----------------------------------|
|---------------------------------|----------------------------------|
|---------------------------------|----------------------------------| 

  again,                                              till I find you
  (D5)
|---------------------------------|----------------------------------|
|---------------------------------|----------------------------------|
|---------------------------------|----------------------------------|
|---------------------------------|----------------------------------|
|---------------------------------|----------------------------------|
|-0-/12--10---7---8---7---5---3---|--0-/12--10---7---8---7---5---3---|
|
|
|----10---8---6---5---6---5---3p1-|-----10---8---6---5---6---5---3---|
|---------------------------------|--------------------------------3-|
|---------------------------------|----------------------------------|
|---------------------------------|----------------------------------|
|---------------------------------|----------------------------------|
|---------------------------------|----------------------------------|

OUTRO:(3:20)
  again, 
  D5
|---------------------------------|----------------------------------|
|---------------------------------|----------------------------------|
|---------------------------------|----------------------------------|
|-0-------------------------------|----------------------------------|
|-0-------------------------------|----------------------------------|
|-0-------------------------------|----------------------------------|
| Hold
|
|---------------------------------|----------------------------------|
|-(3)---3---3---3-----------------|----------------------------------|
|-------------------7---9---7/----|----------------------------------|
|---------------------------------|----------------------------------|
|---------------------------------|----------------------------------|
|---------------------------------|----------------------------------|

-----------------------------------

2.DOWN INSIDE OF YOU
Tuning- Drop D

                     7x		
/ E|-----------------------------
| B|-----------------------------
| G|-----------------------------
| D|-----------------------------
/ A|---------8-8-----------------
| E|5--7--8-----7--8------------
			4x
| e|-------------------------------------------------------------------------
| B|-------------------------------------------------------------------------
| G|-------------------------------------------------------------------------
| D|-5--5--5-----8--8--8--5--------------------------------------------------
| A|-5--5--5-----8--8--8--5--------------------------------------------------
| E|-5--5--5-----8--8--8--5--------------------------------------------------
	
chorus
| e|-------------------		not sure about the strumming pattern
| B|-------------------
| G|-------------------
| D|-135-------------
| A|-135-------------
| E|-135-------------

verse
chorus
then		4x			    
| e|-------------------------------------------------------------------------
| B|-------------------------------------------------------------------------
| G|-------------------------------------------------------------------------
| D|5-5-5-8-8-3-3-3-5-5----------------5------------------------------------
| A|5-5-5-8-8-3-3-3-5-5----------------5------------------------------------
| E|5-5-5-8-8-3-3-3-5-5----------------5------------------------------------

------------------------------------

3.MILLION MILES
Tuning- Down 1/2 step

Intro:
   Bm              Bsus2
(clean elec. Gtr.)
|--0-0-0-0-0-0-0-0-00-0-0-0-0-0-0-|
|--3-3-3-3-3-3-3-3-2-2-2-2-2-2-2-2-|
|--4-4-4-4-4-4-4-4-4-4-4-4-4-4-4-4-|
|--4-4-4-4-4-4-4-44-4-4-4-4-4-4-4-|
|--2-2-2-2-2-2-2-22-2-2-2-2-2-2-2-|
|----------------------------------|

Verse 1:
   Bm                Bm/A        Bm/G          E
               On my way for the day I find no sorrow
|--0------------------0-----------0------------0----------|
|--3------------------3-----------3------------0----------|
|--4------------------4-----------4------------1----------|
|--4------------------4-----------4------------2----------|
|--2-(Keep Strumming)-0-----------X------------2----------|
|---------------------------------3------------0----------|
   
   Bm               Bm/A           Bm/G               E
  Everyday is all the same, there's no tomorrow
      Bm          Bm/A             Bm/G                E
And I feel like I feel, cause it's cold here where you left me

Chorus: (distortion)
   G5     A5       B5
      Hey,___  I__ think that someday I might need you somehow
|--------------------------------------------------------------|
|--------------------------------------------------------------|
|--------------------------------------------------------------|
|--5-5----7-7--------------------------------------------------|
|--5-5----7-7------7/9-----------------------7/9---------------|
|--3-3----5-5------5/7-----------------------5/7---------------|

   G5      A5      B5
      I,__    I,__ think I might have loved you
|--------------------------------------------------------------|
|--------------------------------------------------------------|
|--------------------------------------------------------------|
|--5-5----7-7--------------------------------------------------|
|--5-5----7-7------7/9----------------7/9----------------------|
|--3-3----5-5------5/7----------------5/7----------------------|

   G5       A5       B5
      These things I said, but you were 
|----------------------------------------------|
|----------------------------------------------|
|----------------------------------------------|
|--5-5----7-7----------------------------------|
|--5-5----7-7--------7/9------7/9--------------|
|--3-3----5-5--------5/7------5/7--------------|

   G5     A5     E           Em          Esus2
 A million miles away                         a million miles away
|---------------------------------------------------------------------|
|----------------9---9-9-9---8---8-8-8---7---7-7-7--------------------|
|----------------9---9-9-9---9---9-9-9---9---9-9-9--------------------|
|--5--5---7---7--9---9-9-9---9---9-9-9---9---9-9-9--4/(whammy bar 1/2)|
|--5--5---7---77------------7-----------7----------------------------|
|--3--3---5---5-------------------------------------------------------|


   B5
|------------------------|
|------------------------|
|--4-4------------7b-----|
|--4-4----------7--------|
|--2-2---2-4-5----------|
|------------------------|


Verse 2: (distortion)
   B5       B5/A        B5/G          E
	On my way for the day I find my heart is not for taking
|-------------------------------------0---0---0-0--------------|
|-------------------------------------0---0---0-0--------------|
|--4-4------4-4---------4-4-----------1---1---1-1--------------|
|--4-4------4-4---------4-4-----------2---2---2-2--------------|
|--2-2------0-0---------X-X-----------2---2---2-2--------------|
|-----------------------3-3-----------0---0---0-0--------------|

   B5                 B5/A             B5/G                   E
      And I know it's all but gone, it only served to make me cry

            B5          B5/A             B5/G                E             
      And I feel like I feel, cause it's back here with your memory

(Chorus)

   B5  G5      E5
|-----------------|
|-----------------|
|--4--------------|
|--4---5---5---2--|
|--2---5---5---2--|
|------3---3---0--|  (4x)



(clean guitar)
   Bm                               Bm/G
             A million miles______                A million miles
|--0-0-0-0-0-0-0-0-0-0-0-0-0-0-0----0-0-0-0-0-0-0-0-0-0-0-0-0-0--|
|--3-3-3-3-3-3-3-3-3-3-3-3-3-3-3----3-3-3-3-3-3-3-3-3-3-3-3-3-3--|
|--4-4-4-4-4-4-4-4-4-4-4-4-4-4-4----4-4-4-4-4-4-4-4-4-4-4-4-4-4--|
|--44-4-4-4-4-4-4-4-4-4-4-4-4-4----4-4-4-4-4-4-4-4-4-4-4-4-4-4--|
|--2-2-2-2-2-2-2-2-2-2-2-2-2-2-2----X-X-X-X-X-X-X-X-X-X-X-X-X-X--|
|-----------------------------------3-3-3-3-3-3-3-3-3-3-3-3-3-3--|

   E                                F#(11)
                                                  A million miles
|--0-0-0-0-0-0-0-0-0-0-0-0-0-0-0----0-0-0-0-0-0-0-0-0-0-0-0-0-0--|
|--0-0-0-0-0-0-0-0-0-0-0-0-0-0-0----0-0-0-0-0-0-0-0-0-0-0-0-0-0--|
|--1-1-1-1-1-1-1-1-1-1-1-1-1-1-1----3-3-3-3-3-3-3-3-3-3-3-3-3-3--|
|--2-2-2-2-2-2-2-2-2-2-2-2-2-2-2----4-4-4-4-4-4-4-4-4-4-4-4-4-4--|
|--2-2-2-2-2-2-2-2-2-2-2-2-2-2-2----4-4-4-4-4-4-4-4-4-4-4-4-4-4--|
|--0-0-00-0-0-0-0-0-0-0-0-0-0-0----2-2-2-2-2-2-2-2-2-2-2-2-2-2--|

(distortion)
   G5     A5       B5
  away_____
|--------------------------------------------------------------|
|--------------------------------------------------------------|
|--------------------------------------------------------------|
|--5-5----7-7--------------------------------------------------|
|--5-5----7-7------7/9-----------------------7/9---------------|
|--3-3----5-5------5/7-----------------------5/7---------------|

   G5    A5       B5
|--------------------------------------------------------------|
|--------------------------------------------------------------|
|--------------------------------------------------------------|
|--5-5----7-7--------------------------------------------------|
|--5-5----7-7------7/9-----------------------7/9---------------|
|--3-3----5-5------5/7-----------------------5/7---------------|

   G5     A5      B5
    These things I said   but you were
|--------------------------------------------------------------|
|--------------------------------------------------------------|
|--------------------------------------------------------------|
|--5-5----7-7--------------------------------------------------|
|--5-5----7-7------7/9-----------------------7/9---------------|
|--3-3----5-5------5/7-----------------------5/7---------------|

  G5      A5      B5
  a million miles, a million miles
|--------------------------------------------------------------|
|--------------------------------------------------------------|
|--------------------------------------------------------------|
|--5-5----7-7--------------------------------------------------|
|--5-5----7-7------7/9-----------------------7/9---------------|
|--3-3----5-5------5/7-----------------------5/7---------------|


(Chorus)

   B5  G5      E5
|-----------------|
|-----------------|
|--4--------------|
|--4---5---5---2--|
|--2---5---5---2--|
|------3---3---0--|  (4x)

Outro: (clean guitar)

   Bm                Bm/A        Bm/G          E
               On my way for the day I find no sorrow_____
|--0------------------0-----------0------------0-0-0-0~---|
|--3------------------3-----------3------------0-0-0-0~---|
|--4------------------4-----------4------------1-1-1-1~---|
|--4------------------4-----------4------------2-2-2-2~---|
|--2-(Keep Strumming)-0-----------X------------2-2-2-2~---|
|---------------------------------3------------0-0-0-0~---|

-------------------------------

4.FALLS ON ME
Tuning- Standard

Intro/Verse (this sounds good and works with 
singing but the alternate way I have it is more exact 
to what Carl plays)

Figure 1:
1st way to play it
|---------0---------------0-----
|--2----2---2-----2-----2---2---
|-----0-------0------0--------0-
|-------------------------------
|---------------0---------------
|-1-----------------------------
then after 3 times
Figure 2:
   D U D U D U D U  D
e--2-2-2-2-3-3-3-3--2----|
B--1-1-1-1-1-1-1-1--1----|
G--2-2-2-2-2-2-2-2--2----|
D------------------------|
A------------------------|
E------------------------|

Figure 3:
ALTERNATE !!Thicker way to play the same riff

e-----------------------------------------
B-----------------------------------------
G-------0-----9p0-----------0------9p0----
D----10---10------10-----10----10------10-
A--8-------------------0------------------
E-----------------------------------------

e-----------------------------------------
B-----------------------------------------
G-------0-----9p0-----------0------9p0----
D----10---10------10-----10----10------10-
A--8-------------------0------------------
E-----------------------------------------
                                          D U  D  U U U  U
e-----------------------------------------0-0--0--0-0-0--0-|
B----------------------------------10v/7--7-7/-8--8-8-8--7-|
G-------0-----9p0-----------0-------------0-0--0--0-0-0--0-|
D----10---10------10-----10----10---------4-4--4--4-4-4--4-|
A--8-------------------0------------------5-5--5--5-5-5--5-|
E----------------------------------------------------------|

Figure 4:
*1st chorus*
 C               G
And all of your ways
         Am
All you dream
         F
Falls on me, it falls on me
 C                  G
And your beautiful sky
               Am
The light you bring
          F
Falls on Me it falls on me

Figure 5:
After Chorus
F F F F F F Am Am Am Am
F F F F F F Am Am Am Am
F F F F F F Am Am Am Am then go back to figure 2

Verse(same as 1st versus but distorted
 and palm muted at low volume)

Figure 6:
*2nd chorus*
 C              G
And all of your ways
         Am
All you dream
         F
Falls on me, it falls on me
 C                G
And your beautiful sky
               Am
The light you bring
          F             G
Falls on Me it falls on me

Figure 7:
*Bridge*
G           Am
Am I that strong
G        Am
To carry on
G                Am
I might save your life
            G        F
And I might save my world
               E
Could you save me

Figure 8:
*3rd Chorus*
 C              Gsus2
And all of your ways
         Am
All you dream
         F
Falls on me, it falls on me
 C                Gsus2
And your beautiful sky
               Am
The light you bring
          F
Falls on Me it falls on me
(repeat)

Then play Figure 4 twice until outro solo comes in and continue to end

And now for the kick-@$$ outro solo
     P.H. P.H.                                P.H.       P.H.
e---------------------------------------------------------------------|
B---------------------------------------------------------------------|
G----/(9)-(9)-9v-10p9----------9v-10p9---------9v-10p9----------------|
D---------------------12v-10v----------12-10-----------12b14r12-10-9v-|
A---------------------------------------------------------------------|
E---------------------------------------------------------------------|

Then back to...
e-----------------------------------------
B-----------------------------------------
G-------0-----9p0-----------0------9p0----
D----10---10------10-----10----10------10-
A--8-------------------0------------------
E-----------------------------------------

e-----------------------------------------
B-----------------------------------------
G-------0-----9p0-----------0------9p0----
D----10---10------10-----10----10------10-
A--8-------------------0------------------
E-----------------------------------------
                                          
e-----------------------------------------0-|
B----------------------------------10v/7--7-|
G-------0-----9p0-----------0-------------0-| Fade out
D----10---10------10-----10----10---------4-|
A--8-------------------0------------------5-|
E-------------------------------------------|

Chord summary for chorus/bridge
  C  G  Am  F  E  
-----3------1--0---
--5--3--1---1--0---
--5--4--2---2--1---
--5--5--2---3--2---
--3--5------3--2---
-----3------1--0---

-----------------------------

5.THESE THINGS
Tuning- Down 1/2 Step

CHORDS:
Am7: X02213
Am7/E: 0X2213
D: XX0232
G: 320033
G#m: 4X044X
F: 133211 OR 1332XX OR X33211
Am: X02210
E: 022100
C: X32010

Intro:
(slight distortion)
 Am7          Am7/E  D        Am7          Am7/E  D
|---3-3-3---3----3---2-2-3-3-|---3-3-3---3----3---2-2-3-3-|
|---1-1-1---1----1---3-3-3-3-|---1-1-1---1----1---3-3-3-3-|
|---2-2-2--------2---2-2-2-2-|---2-2-2--------2---2-2-2-2-|
|-2---2-2--------2---0-0-0-0-|-2---2-2--------2---0-0-0-0-|
|-0---0-0-0------------------|-0---0-0-0------------------|
|--------------0-------------|--------------0-------------|

Verse 1:
  I have a smile to hide me   I have this cross to bear
  Am7          Am7/E  D        Am7          Am7/E  D
|---3-3-3---3----3---2-2-3-3-|---3-3-3---3----3---2-2-3-3-|
|---1-1-1---1----1---3-3-3-3-|---1-1-1---1----1---3-3-3-3-|
|---2-2-2--------2---2-2-2-2-|---2-2-2--------2---2-2-2-2-|
|-2---2-2--------2---0-0-0-0-|-2---2-2--------2---0-0-0-0-|
|-0---0-0-0------------------|-0---0-0-0------------------|
|--------------0-------------|--------------0-------------|

 I have your picture that still 
 haunts me like you memory         
  Am7          Am7/E  D        
|---3-3-3---3----3---2-2-3-3-|
|---1-1-1---1----1---3-3-3-3-|
|---2-2-2--------2---2-2-2-2-|
|-2---2-2--------2---0-0-0-0-|
|-0---0-0-0------------------|
|--------------0-------------|

     These things have I
  G        G#m        Am
|-3---3---------------------------------------------------|
|-3---3----4---4----------3-1-0-0h1-0h1-----3-1-0-0h1-0h1-|
|-0---0----4---4---------2-----------------2--------------|
|-0---0----0---0--------2-----------------2---------------|
|-2---2----X---X-------0-----------------1----------------|
|-3---3----4---4------------------------------------------|

Verse 2:
(distortion)
  I have these words to lie to me, these stupid songs to share 
  Am7          Em     D          Am7           Em    D
|---3-3-3---3--0-0---2-2-3-3----|---3-3-3---3--0-0---2-2-3-3----|
|---1-1-1---1--0-0---3-3-3-3----|---1-1-1---1--0-0---3-3-3-3----|
|---2-2-2------0-0---2-2-2-2----|---2-2-2------0-0---2-2-2-2----|
|-2---2-2------2-2---0-0-0-0----|-2---2-2------2-2---0-0-0-0----|
|-0---0-0-0----2-2--------------|-0---0-0-0----2-2--------------|
|--------------0-0----------0h3-|--------------0-0----------0h3-|


 I have these countless hours
 to fill the void you left me
  Am7          Em    D        
|---3-3-3---3--0-0---2-2-3-3-|
|---1-1-1---1--0-0---3-3-3-3-|
|---2-2-2------0-0---2-2-2-2-|
|-2---2-2------2-2---0-0-0-0-|
|-0---0-0-0----2-2-----------|
|--------------0-0-----------|

     These things have I
  G        G#m        Am
|-3---3---------------------------------------------------|
|-3---3----4---4----------3-1-0-0h1-0h1-----3-1-0-0h1-0h1-|
|-0---0----4---4---------2-----------------2--------------|
|-0---0----0---0--------2-----------------2---------------|
|-2---2----X---X-------0-----------------1----------------|
|-3---3----4---4------------------------------------------|

Guitar Solo:
  Am7          Em    D            Am7          Em    D
|---3-3-3---3--0-0---2-2-3-3----|---3-3-3---3--0-0---2-2-3-3----|
|---1-1-1---1--0-0---3-3-3-3----|---1-1-1---1--0-0---3-3-3-3----|
|---2-2-2------0-0---2-2-2-2----|---2-2-2------0-0---2-2-2-2----|
|-2---2-2------2-2---0-0-0-0----|-2---2-2------2-2---0-0-0-0----|
|-0---0-0-0----2-2--------------|-0---0-0-0----2-2--------------|
|--------------0-0-----------0h3|--------------0-0----------0h3-|

  Am7          Em    D        
|---3-3-3---3--0-0---2-2-3-3-|
|---1-1-1---1--0-0---3-3-3-3-|
|---2-2-2------0-0---2-2-2-2-|
|-2---2-2------2-2---0-0-0-0-|
|-0---0-0-0----2-2-----------|
|--------------0-0-----------|

  G        G#m        Am
|-3---3---------------------------------------------------|
|-3---3----4---4----------3-1-0-0h1-0h1-----3-1-0-0h1-0h1-|
|-0---0----4---4---------2-----------------2--------------|
|-0---0----0---0--------2-----------------2---------------|
|-2---2----X---X-------0-----------------1----------------|
|-3---3----4---4------------------------------------------|

Bridge:
And all these things I've done, Let you down I just apologize
           [And all these things I've done]
  G           Am                C              E
|-3---3---3---0---0---0---------0---0---0------0---0---0------|
|-3---3---3---1---1---1-------1-1---1---1------0---0---0------|
|-0---0---0---2---2---2-------0-0---0---0------1---1---1------|
|-0---0---0---2---2---2-------X-2---2---2------2---2---2------|
|-2---2---2---0---0---0-------2-3---3---3------2---2---2------|
|-3---3---3------------------------------------0---0---0------|

But sorry's hard somehow, Seems so strange it'd be so easy now     
            [Sorry's hard somehow]
  F         Am            C                     E
|-1---1---1-0---0---0-----0---0---0-------------0---0---0-----|
|-1---1---1-1---1---1---1-1---1---1-------------0---0---0-----|
|-2---2---2-2---2---2---0-0---0---0-------------1---1---1-----|
|-3---3---3-2---2---2---X-2---2---2-------------2---2---2-----|
|-3---3---3-0---0---0---2-3---3---3-------------2---2---2-----|
|-1---1---1-------------------------------------0---0---0-----|

Verse 3:
  And I'v got this faith to    And I've got these dreams     
  blind me                     we shared
  Am7          Em     D         Am7           Em    D
|---3-3-3---3--0-0---2-2-3----|---3-3-3---3--0-0---2-2-3-3-----|
|---1-1-1---1--0-0---3-3-3----|---1-1-1---1--0-0---3-3-3-3-----|
|---2-2-2------0-0---2-2-2----|---2-2-2------0-0---2-2-2-2-----|
|-2---2-2------2-2---0-0-0----|-2---2-2------2-2---0-0-0-0-----|
|-0---0-0-0----2-2------------|-0---0-0-0----2-2---------------|
|--------------0-0--------0h3-|--------------0-0-----------0h3-|

And I have the fear that dreams 
are all I have that's left to me
  Am7          Em    D        
|---3-3-3---3--0-0---2-2-3-3-|
|---1-1-1---1--0-0---3-3-3-3-|
|---2-2-2------0-0---2-2-2-2-|
|-2---2-2------2-2---0-0-0-0-|
|-0---0-0-0----2-2-----------|
|--------------0-0-----------|

     These things            all these things
               [these things]               [all these
  G        G#m        F          Em
|-3---3---------------1---1---1--0-----0-----0----------|
|-3---3----4---4------1---1---1--0-----0-----0----------|
|-0---0----4---4------2---2---2--0-----0-----0----------|
|-0---0----0---0------3---3---3--2-----2-----2----------|
|-2---2----X---X------3---3---3--2-----2-----2----------|
|-3---3----4---4------1---1---1--0-----0-----0----------|

    These things have I
  things]
  F       G           Am
|-1---1---3---3---3-|-0---0-|
|-1---1---3---3---3-|-1---1-|
|-2---2---0---0---0-|-2---2-|
|-3---3---0---0---0-|-2---2-|
|-3---3---2---2---2-|-0---0-|
|-1---1---3---3---3-|-------|

  These things            all these things
               [these things]               [all these
  G        G#m        F          Em
|-3---3---------------1---1---1--0-----0-----0----------|
|-3---3----4---4------1---1---1--0-----0-----0----------|
|-0---0----4---4------2---2---2--0-----0-----0----------|
|-0---0----0---0------3---3---3--2-----2-----2----------|
|-2---2----X---X------3---3---3--2-----2-----2----------|
|-3---3----4---4------1---1---1--0-----0-----0----------|

  These things have I_____
  things]
  F       G           Am           G            F           Am
|-1---1---3---3-3-||-0---0-0-0---3---3-3-3----1---1-1-1---0---0-0-0-||
|-1---1---3---3-3-||-1---1-1-1---3---3-3-3----1---1-1-1---1---1-1-1-||
|-2---2---0---0-0-||-2---2-2-2---0---0-0-0----2---2-2-2---2---2-2-2-||
|-3---3---0---0-0-||-2---2-2-2---0---0-0-0----3---3-3-3---2---2-2-2-||
|-3---3---2---2-2-||-0---0-0-0---2---2-2-2----3---3-3-3---0---0-0-0-||
|-1---1---3---3-3-||-------------3---3-3-3----1---1-1-1-------------||
                   |________________________________________________|
                            Play several times and fade out

------------------------------------

6.WONT BACK DOWN
Tuning- Drop D

Intro:
Figure 1:For the intro you let notes ring for a second then stop them with your palm (*)
        *       *       *
e-----------------------------------------------------------------------|
B-----------------------------------------------------------------------|
G-----------------------------------------------------------------------|
D---10-*----10-*----10-*---------10-10-10-10-10-10-10-10-10-10----------|
A---10-*----10-*----10-*---------10-10-10-10-10-10-10-10-10-10----------|
D---10-*----10--*---10-*---------10-10-10-10-10-10-10-10-10-10----------|
Figure 2:
e---------------------------------------------------------------------------|
B---------------------------------------------------------------------------|
G---------------------------------------------------------------------------| 
D--10-10--0--10-10-10-8-6--6---6-6-6-0-8--8--8-8-8--10-XXXX-10-10-10-10---8-| x2
A--10-10--0--10-10-10-8-6--6---6-6-6-0-8--8--8-8-8--10-XXXX-10-10-10-10---8-|
D--10-10--0--10-10-10\8\6--6---6-6-6-0/8--8--8-8-8--10-XXXX-10-10-10-10---8-|
pm         *                          *                    
Verse:
There isn't much for the verse really except this riff(Fig.3) 
and Figure 2 Palm muted which is placed when Brett sings 
"The echoes in my brain"

Figure 3:
e-----20------|
B--18----17v--|
G-------------|
D-------------|
A-------------|
D-------------|

Chorus:
The Chorus is exactly the same as the Figure 2 of the intro (Fig.2)

Fig.2

e---------------------------------------------------------------------------|
B---------------------------------------------------------------------------|
G---------------------------------------------------------------------------| 
D--10-10--0--10-10-10-8-6--6---6-6-6-0-8--8--8-8-8--10-XXXX-10-10-10-10---8-| x2
A--10-10--0--10-10-10-8-6--6---6-6-6-0-8--8--8-8-8--10-XXXX-10-10-10-10---8-|
D--10-10--0--10-10-10\8\6--6---6-6-6-0/8--8--8-8-8--10-XXXX-10-10-10-10---8-|

Bridge:Rhythm (This goes nicely with the wah riff)

Figure 4:
e-------------------------------------
B-------------------------------------
G-------------------------------------
D--6-6-6-6-6-6-6-6--8-8-8-8-XX--10-10-
A--6-6-6-6-6-6-6-6--8-8-8-8-XX--10-10-
D--6-6-6-6-6-6-6-6--8-8-8-8-XX--10-10-

e-------------------------------------
B-------------------------------------
G-------------------------------------
D--6-6-6-6-6-6-6-6--8-8-8-8-XX--10-10-
A--6-6-6-6-6-6-6-6--8-8-8-8-XX--10-10-
D--6-6-6-6-6-6-6-6--8-8-8-8-XX--10-10-

e------------------------------------------------------------------
B------------------------------------------------------------------
G------------------------------------------------------------------
D--6-6-XX--6-6--8-8--XX--10-10--10--6-6-XX-6-6-6--8--8--8-8--8-8-8-
A--6-6-XX--6-6--8-8--XX--10-10--10--6-6-XX-6-6-6--8--8--8-8--8-8-6-
D--6-6-XX--6-6--8-8--XX--10-10--10--6-6-XX-6-6-6--8--8--8-8--8-8-6-

Bridge:Lead (w/ wah as filler)

Figure 5:
                                                        
e----------------------------------------------------------------------------
B----------------------------------------------------------------------------
G---8-8-8-8-8-8-8-8--10-10-10-10--12-12-12-12---8-8-8-8-8-8-8-8--10-10-10-10-
D----------------------------------------------------------------------------
A----------------------------------------------------------------------------
D----------------------------------------------------------------------------

e----------------------------------------------------------------------------
B----------------------------------------------------------------------------
G--12-12-12-12---8-8-8-8-8-8-8-8--10-10-10-10--12-12-12-12/13-13-13-13-13-13-
D----------------------------------------------------------------------------
A----------------------------------------------------------------------------
D----------------------------------------------------------------------------
                                             *            *            *
e---------------------------------------|-------------------------------------
B--13-13--8-8-8-8-8-8-8-8---10-10--8-8--|--------------------------------------
G--------------------Both Enter Here--->|----------------------------------
D---------------------------------------|-10---10-10---10---10-10---10---10-10
A---------------------------------------|-10---10-10---10---10-10---10---10-10
D---------------------------------------|-10---10-10---10---10-10---10---10-10
     *
e------------------------------------------------| 
B------------------------------------------------|
G------------------------------------------------|
D-10---8---10-10--10-10--8-8---10-10--10-10--8-8-|  The Return to the Chorus until
A-10---8---10-10--10-10--8-8---10-10--10-10--8-8-|               End
D-10---8---10-10--10-10--8-8---10-10--10-10--8-8-|

--------------------------------------

7.RUNNING AWAY
Tuning- Drop D

CHORDS:
G5: 555XXX		F5: 333XXX
Eb5: 111XXX		Bb5: 888XXX
G: 559XXX		Eb: 1110XX
Fsus2: 3330XX	        D5: 000(2)XX
[ Tab from: http://www.guitaretab.com/f/fuel/56213.html ]
INTRO: (0:24)
G1: dist.
  G5 / / /   //   / / /    / / //    
G2: dist. w/rotary speaker & delay
|----------------------------------|
|----------------------------------|
|----------------------------------|
|-----7b-(7)-8-8---7b-(7)---5-7p5--|
|----------------------------------|
|----------------------------------|

  G5 / / /   //   / / /    / / //    
|----------------------------------|
|----------------------------------|
|----------------------------------|
|-----7b-(7)-8-8---7b-(7)---5-7p5--|
|----------------------------------|
|----------------------------------|

VERSE 1: (0:33)
  Everyday you're on my mind
  G5                    F5
|----------------------------------------|
|----------------------------------------|
|----------------------------------------|
|------7h8---------------------5h7p7-7---|
|----------------------------------------|
|----------------------------------------| (repeat throughout verse)

G5                      F5  
Pain is feeling passing time, 
       G5                                F5
but if she found out about you she would die
         G5                                F5
And if I had to live without you, so would I

PRE-CHORUS: (1:10)
    Eb5             F5
So I thirst for the water
Eb5           F5
I find myself wanting now

CHORUS: (1:19)
  So I'm running away to you
         G       Eb5     Bb5     F5
|-------------------------------------------|
|--------------11----11-----11-----10h11p10-|
|--------10/12----12-----10----10-----------|
|-------------------------------------------|
|-------------------------------------------|
|-------------------------------------------|
         I can not escape you
           G5      Eb5     Bb5     F5
|-------------------------------------------|
|--------------11----11-----11-----10h11p10-|
|--------10/12----12-----10----10-----------|
|-------------------------------------------|
|-------------------------------------------|
|-------------------------------------------|

     To feel your touch, the faith you prove
           G5      Eb5     Bb5     F5
|-------------------------------------------|
|--------------11----11-----11-----10h11p10-|
|--------10/12----12-----10----10-----------|
|-------------------------------------------|
|-------------------------------------------|
|-------------------------------------------|

       I'm running away to you
           G       Eb5     Bb5     F5
|-------------------------------------------|
|--------------11----11-----11-----10h11p10-|
|--------10/12----12-----10----10-----------|
|-------------------------------------------|
|-------------------------------------------|
|-------------------------------------------|

VERSE 2: (1:37)
         Hearts are never made of stone
  G5                              F5
|------10------10-----10-------10-------------------------------------|
|-10h11---10h11---10h11---10h11---10h11-13-10h11-13-10h11-13-10h11-13-|
|---------------------------------------------------------------------|
|---------------------------------------------------------------------|
|---------------------------------------------------------------------|
|---------------------------------------------------------------------|
(repeat through out verse)

G5                       F5
Pain will cut you to the bone
      G5                             F5
But I know that holding to is all so wrong
   G5                               F5
So tonight's the last we'll ever be alone

PRE-CHORUS: (2:15)
 So I thirst for the water 
   Eb5             F5
|-------------------------|
|---10b-------------10----|
|-------------------------|
|-------------------------|
|-------------------------|
|-------------------------|



  I find myself wanting now
  Eb5           F5
|-------------------------|
|---10b-------------10----|
|-------------------------|
|-------------------------|
|-------------------------|
|-------------------------|

(CHORUS) (2:24)

BRIDGE: (2:42)
Eb        Fsus2                  Eb5
  Turn around, fill my eyes with you
              D5
All senses to commit, till everything's alright

Guitar Solo: (3:01)
  G5   Eb5    Bb5   F5     G5   Eb5  D5/Eb5 D5
|------------------------|------------------------|
|------------------------|------------------------|
|------------------------|-7h8-8-7-7\5---7-7-8/10-|
|-7b-(7)-5-7-5-5-7-8-7-5-|------------------------|
|------------------------|------------------------|
|------------------------|------------------------|
  G5   Eb5    Bb5   F5       G5   Eb5    F5
|--------------------------|-17h18-18-20-17-17----|
|-/ll-llp10-11/13/15/16-18-|------------------18~-|
|--------------------------|----------------------|
|--------------------------|----------------------|
|--------------------------|----------------------|
|--------------------------|----------------------|

PRE-CHORUS: (3:19)
 So I thirst for the water 
   Eb5             F5
|-------------------------|
|---10b-------------10----|
|-------------------------|
|-------------------------|
|-------------------------|
|-------------------------|

  I find myself wanting now
  Eb5           F5
|-------------------------|
|---10b-------------10----|
|-------------------------|
|-------------------------|
|-------------------------|
|-------------------------|

BREAK: (3:28)
So I'm running away
  G5      Eb5     Bb5     F5
  P.M. . . . . . . . . . . . . . .
|---------------------------------|
|---------------------------------|
|---------------------------------|
|-5-5-5---1-1-1---8-8-8---3-3-0-3-|
|-5-5-5---1-1-1---8-8-8---3-3-0-3-|
|-5-5-5---1-1-1---8-8-8---3-3-0-3-|

                  yeah, yeah, yeah
  G5      Eb5     F5
  P.M. . . . . .
|---------------------------------|
|---------------------------------|
|---------------------------------|
|-5-5-5---1-1-1---3---3---3-------|
|-5-5-5---1-1-1---3---3---3-------|
|-5-5-5---1-1-1---3---3---3-------|

(CHORUS 2X) (3:38)

OUTRO: (4:14)
G5   Eb5    Bb5   F5     G5   Eb5  D5/Eb5 D5

----------------------------------

8.MOST OF ALL
Tuning- Drop D

CHORDS:
D5: 0577XX		A: 7-7-11-X-X-X		B5: 999XXX
G: 559XXX		A5: 777XXX			E5: 222XXX
G5: 555XXX		F#5: 444XXX			Bm: X2443X
Bm/A: X0443X	Gmaj7: 5X4X3X		B7sus2: X2X22X

Intro: (0:00) (elec. gtr. w/dist.) Palm muted throughout
  D5                   A
|-------------------------|----------------------|
|-------------------------|----------------------|
|-7--7--7--7--7--7--7-----|----------------------|
|-7--7--7--7--7--7--7--11-|-11-11-11-11-11-11-11-|
|-5--5--5--5--5--5--5--7--|-7--7--7--7--7--7--7--|
|-0--0--0--0--0--0--0--7--|-7--7--7--7--7--7--7--|

  B5                   G
|-------------------------|------------------------|
|-------------------------|------------------------|
|-------------------------|------------------------|
|----------------------9--|-9--9--9--9--9--9--9----|
|-9--9--9--9--9--9--9--5--|-5--5--5--5--5--5--5--0-|
|-9--9--9--9--9--9--9--5--|-5--5--5--5--5--5--5--0-| (Repeat)

VERSE 1: (0:15) (continue rhythm in intro)
D5         A             B5        G
I see your stars tonight, do you recall that light
D5        A               B5       G 
Or do you ever think of me

     And in your world somewhere, do memories rip and tear?
  D5             A              B5            G              (gtr. 2)
|--------------------|--------------------------|-------------------|
|--------------------|--------------------------|-------------------|
|-7--------------6---|----------7-------------4-|-------------------|
|-7--------------7---|----------7-------------5-|-------------------|
|-5--------------4---|------------------------5-|-------------------|
|--------------------|--------------------------|-------------------|

 the ones that always keep you hanging onto all that might have been
  D5             A              B5            G
|--------------------|--------------------------|-------------------|
|--------------------|--------------------------|-------------------|
|-7--------------6---|----------7-------------4-|-------------------|
|-7--------------7---|----------7-------------5-|-------------------|
|-5--------------4---|------------------------5-|-------------------|
|--------------------|--------------------------|-------------------|

CHORUS: (0:45)
  And I love you now, and I hate you now
  D5    A5           E5   F#5 G5
|------------------|---------------------|
|-7-----5----------|-7--------8----------|
|-7-----6----------|-7--------7----------|
|------------------|-9--------5----------|
|------------------|---------------------|
|------------------|---------------------| (gtr. 2)

(cont. gtr. 2 lead)
D5    A5           E5  G5
And I miss you most of all
D5        A5              E5        F#5 G
All those times we laughed, the scars that you left
D5       A5                 E5   F#5 G5
Still, I miss you most of all

    D5             A              B5            G
|-------------------|---------------|------------|--------------|
|-7v~---------------|---------------|------------|--------------|
|-------------------|---------------|------------|--------------|
|-------------------|---------------|------------|--------------|
|-------------------|---------------|------------|--------------|
|-------------------|---------------|------------|--------------|

VERSE 1: (1:23) (continue rhythm in intro)
D5         A             B5             G
And by the water's side, the tall grass where we lied
D5            A                    B5       G 
The nights we cried ourselves to sleep

     Most Septembers now, I break down somehow
  D5             A              B5            G              (gtr. 2)
|--------------------|--------------------------|-------------------|
|--------------------|--------------------------|-------------------|
|-7--------------6---|----------7-------------4-|-------------------|
|-7--------------7---|----------7-------------5-|-------------------|
|-5--------------4---|------------------------5-|-------------------|
|--------------------|--------------------------|-------------------|

 remembering all we said, and all those dreams we never got to see
  D5             A              B5            G
|--------------------|--------------------------|-------------------|
|--------------------|--------------------------|-------------------|
|-7--------------6---|----------7-------------4-|-------------------|
|-7--------------7---|----------7-------------5-|-------------------|
|-5--------------4---|------------------------5-|-------------------|
|--------------------|--------------------------|-------------------|

CHORUS (1:53)

BRIDGE: (2:23)
             Are you somewhere,               without a care?
  Bm     Bm/A    Gmaj7  Bm/A       Bm     Bm/A    Gmaj7  Bm/A   
|--------------|-----------------|--------------|-----------------|
|-----3------3-|-----3-------3---|-----3------3-|-----3-------3---|
|--------------|---------------4-|--------------|---------------4-|
|---4------4---|---4-------4-----|---4------4---|---4-------4-----|
|-2------0-----|--------0--------|-2------0-----|--------0--------|
|--------------|-5---------------|--------------|-5---------------|

            Or are you alone as I, did you ever make it home?
  Bm     Bm/A    Gmaj7  Bm/A       G5           A5 
|--------------|-----------------|-------------|-------------|
|-----3------3-|-----3-------3---|-------------|-------------|
|--------------|---------------4-|-------------|-------------|
|---4------4---|---4-------4-----|-5---5-5-5---|-7---7-7-7-7-|
|-2------0-----|--------0--------|-5---5-5-5---|-7---7-7-7-7-|
|--------------|-5---------------|-5---5-5-5---|-7---7-7-7-7-|

GUITAR SOLO: (2:38)
  D5              A5              B5                G5
|----------------|--------------|-----------------|---------------|
|----------------|--------------|-----------------|-------------7-|
|-9-9---9-7-7----|---9----7-7-7-|-7-9-9---9-7-7-7-|-9-7-9-7-------|
|---9-7-9-7-7-11-|---9----------|-7-9-9---9-7-7-7-|---------------|
|----------------|--------------|-----------------|---------------|
|----------------|--------------|-----------------|---------------|

  D5                    A5
|-----------------9-9-|-10-10-12-12-14v~-----14--|
|-7-8-10-10-12-12-----|--------------------------|
|---------------------|--------------------------|
|---------------------|--------------------------|
|---------------------|--------------------------|
|---------------------|--------------------------|

  E5                  F#5  G5
|---15-15-14-15-14-15-14-|-(14)------------------|
|------------------------|-----------------------|
|------------------------|-----------------------|
|------------------------|-----------------------|
|------------------------|-----------------------|
|------------------------|-----------------------|

  G5        A5  G5      
|-----------12b----12-|-10--------------|----9---10---10p9---|
|---------------------|-----------------|--------------------|
|---------------------|-----------------|--------------------|
|---------------------|-----------------|--------------------|
|---------------------|-----------------|--------------------|
|---------------------|-----------------|--------------------|

INTERLUDE: (2:59)
                    And I miss you most of all
 D5                                 A
|----------------|----------------|-------------------|
|-----3-0h3---3--|---3---0h3---3--|-----2---0-h2---2--|
|---2-------2----|-2---2-----2----|-------2------2----|
|-0--------------|----------------|---2---------------|
|----------------|----------------|-0-----------------|
|----------------|----------------|-------------------|

       and I miss you now, I miss you now, yeah,___
                   B7sus2
|----------------|----------------|-------------------|
|---2---0h2---2--|----2-2-3-------|----2-2-3----------|
|-2---2-----2----|----2-2-2-------|----2-2-2----------|
|----------------|----------------|-------------------|
|----------------|-2--------------|-2-----------------|
|----------------|----------------|-------------------|

CHORUS (3:14)

OUTRO: (3:45)
  D5                        A5
|-12---12-------12--------|-12-12-12-12-12-12-12-12--|
|----10---10-10----10-10--|-10-10-10-10-10-10-10-10--|
|-------------------------|--------------------------|
|-------------------------|--------------------------|
|-------------------------|--------------------------|
|-------------------------|--------------------------|

  E5                F#5  G5
|-12-12-10-10-10-10-9--|-10-10-10-10-10-10--|
|-10-10-10-10-10-10-9--|-10-10-10-10-10-10--|
|----------------------|--------------------|
|----------------------|--------------------|
|----------------------|--------------------|
|----------------------|--------------------|

  D5                  A5
|-10-10-10-10-10-9--|---9--9--9--9-------10-|
|-10-10-10-10-10-10-|---10-10-10-10-/10-----|
|-------------------|-----------------------|
|-------------------|-----------------------|
|-------------------|-----------------------|
|-------------------|-----------------------|

  E5                       F#5  G5                    (fade out)
|-10----10----10---------------|------------------17---|
|----12----12----12---10---12--|----12-----14h15-------|
|------------------------------|-----------------------|
|------------------------------|-----------------------|
|------------------------------|-----------------------|
|------------------------------|-----------------------|

--------------------------------------------

9.GETTING THRU
Tuning- Drop C

CHORDS:
D5: 000XXX
C5: 10-10-10-X-X-X
Bb5: 888XXX
F5: 3335XX
G5: 5557XX
C#5: 11-11-11-X-X-X
Eb5: 111XXX

INTRO: (0:00)
  N.C. (D5)
|--------------------|------------------------|
|--------------------|------------------------|
|---5-7-4------------|---5-7-4---7------------|
|--------------------|---------3--------------|
|--------------------|------------------------|
|-0------------------|-0----------------------|

  D5      C5 D5   Bb5 C5   D5      C5 D5   P.M..      
|------------------------------------------------------|
|------------------------------------------------------|
|------------------------------------------------------|
|-0-0---0-10-12---8-8-10---0-0---0-10-12---0-0-0-------|
|-0-0---0-10-12---8-8-10---0-0---0-10-12---0-0-0---3v~-|
|-0-0---0-10-12---8-8-10---0-0---0-10-12---0-0-0-------| 2X

3rd time (w/gtr. 1 playing chord structures)
  D5      C5 D5   Bb5 C5   D5      C5 D5   
|------------------------------------------------------|
|-10-10-10b-(10)--11-13-10-10-10b-(10)---(10)---(10)---|
|------------------------------------------------------|
|------------------------------------------------------|
|------------------------------------------------------|
|------------------------------------------------------| 2X

VERSE 1: (w/gtr. 2 playing fig. 1) (0:31)
D5               C5   D5              C5            
 I gave you all (my pride) all my soul
D5              C5 D5
 You gave it all away
D5                C5  D5                   C5
 You tried so hard (to blame) tried to blame
D5                     C5 D5
 There's no more words to say

[Fig. 1]
  D5   H .       C5
|-------------------|
|-------------------|
|------5-5----------|
|-------------------|
|-------------------|
|-------------------|

PRE-CHORUS: (0:51)
Bb5           C5
Got no alibis, now you're out of lies

CHORUS: (1:02)
D5    F5      G5 
 Am I getting through to you?
D5        F5   G5
 How much more should I define?
D5     F5      G5
 Never more to be your fool
D5    F5      G5
 Am I getting through to you?

(1:22)
  D5      C5 D5   Bb5 C5   D5      C5 D5   P.M..      
|------------------------------------------------------|
|------------------------------------------------------|
|------------------------------------------------------|
|-0-0---0-10-12---8-8-10---0-0---0-10-12---0-0-0-------|
|-0-0---0-10-12---8-8-10---0-0---0-10-12---0-0-0---3v~-|
|-0-0---0-10-12---8-8-10---0-0---0-10-12---0-0-0-------| 
|
| Gtr. 2
|------------------------------------------------------|
|-10-10-10b-(10)--11-13-10-10-10b-(10)---(10)---(10)---|
|------------------------------------------------------|
|------------------------------------------------------|
|------------------------------------------------------|
|------------------------------------------------------| 2X

VERSE 1: (w/gtr. 2 playing fig. 1) (1:32)
D5       C5 D5              C5            
 I tried so hard to shake it off
D5               C5 D5
 You threw it in my face
D5                C5  D5                   C5
 Under your skin, your wicked ways
D5                     C5 D5
 The sweetness I can't taste

PRE-CHORUS: (1:52)
Bb5                 C5
All that you provide, all that you disguise

(CHORUS) (2:02)

BRIDGE: (2:22)
Bb5                   C5 G5
If you call know I'll be there
Bb5                  C5           C#5
Tripping on your wire, fall right back into your hand

INTERLUDE: (2:40)
D5          Eb5    D5          Eb5
                                    
D5          Eb5    D5          Eb55
Yeah,_______      Yeah,______
D5         Eb5 D5(HOLD)
Yeah,_______

GUITAR SOLO: (2:53)
  D5    F5   G5     D5         F5    G5
|-----------------|-------------------------------------|
|-/13---12---10---|------------13-12--------------------|
|-----------------|-12-11-9-7--------11b-(11)-(11)-(11)-|
|-----------------|-------------------------------------|
|-----------------|-------------------------------------|
|-----------------|-------------------------------------|

(CHORUS 2X) (3:03)

OUTRO: (3:43)
  D5      C5 D5   Bb5 C5   D5      C5 D5   P.M..      
|------------------------------------------------------|
|------------------------------------------------------|
|------------------------------------------------------|
|-0-0---0-10-12---8-8-10---0-0---0-10-12---0-0-0-------|
|-0-0---0-10-12---8-8-10---0-0---0-10-12---0-0-0---3v~-|
|-0-0---0-10-12---8-8-10---0-0---0-10-12---0-0-0-------| 
|
| Gtr. 2
|------------------------------------------------------|
|-10-10-10b-(10)--11-13-10-10-10b-(10)---(10)---(10)---|
|------------------------------------------------------|
|------------------------------------------------------|
|------------------------------------------------------|
|------------------------------------------------------| 3X

  D5      C5 D5   Bb5 C5   D5      C5 D5(HOLD)      
|------------------------------------------------------|
|------------------------------------------------------|
|------------------------------------------------------|
|-0-0---0-10-12---8-8-10---0-0---0-10-12---------------|
|-0-0---0-10-12---8-8-10---0-0---0-10-12---------------|
|-0-0---0-10-12---8-8-10---0-0---0-10-12---------------| 
|
| Gtr. 2
|------------------------------------------------------|
|-10-10-10b-(10)--11-13-10-10-10b-(10)---(10)---(10)---|
|------------------------------------------------------|
|------------------------------------------------------|
|------------------------------------------------------|
|------------------------------------------------------|

-----------------------------------------

10.DIE LIKE THIS
Tuning- Standard

CHORDS:
Asus2: X02200		Am: X02210		G6: 320000
Gsus4: 32001X		Fmaj7: 133200		F: 133211
E: 022100		E7(b9): 0-11-12-10-0-0	Am/G: 3X2210
F5: 133XXX		Cmaj7: 320000		C/B: X2X010
G: 3554XX		C5: X355XX		Cmaj7/B: X254XX
Asus: X02230		Dm: XX0231		E5: 022XXX
D7sus2/F#: 200210


INTRO: (0:00)
  Asus2 Am  G6  Gsus4   Fmaj7 F   E~   /E7(b9)
|---------------------|-----------------------|
|---------------------|-----------------------|
|-4---5-----4---5-----|-4---5-----4-----------|
|---------------------|-----------------------|
|---------------------|-----------------------|
|---------------------|-----------------------|

VERSE 1: (0:16)
Am                  Am/G                            
 Angels cry tonight, 
                               F                E
As the rain washed that lonely place from their eyes
Am                 Am/G
 Softly as she said
                               F        E
You know our hearts will never get out alive, she made no

PRE-CHORUS: (0:37)
  sound, and goodbye,                  yeah    she said
  F5            Cmaj7 C/B    Am        Cmaj7   F   G
|-------------|-----0----------------|-0---------------|
|-------------|-----0----------1-----|-0---------------|
|-------------|-----0----------2-----|-0-------2---4---|
|-3-3-3-3-3-3-|-2---2--------2-------|-2-------3---5---|
|-3-3-3-3-3-3-|-3-----2b-(2)-0---0-2-|-3-------3---5---|
|-1-1-1-1-1-1-|----------------------|---------1---3---|

CHORUS: (0:48)
  Love don't call on me again, I never wanna 
  C5                    Cmaj7/B       
|-------------------------------------------|
|-------------------------------------------|
|-5---5-5-5---5-5-5---5-4---4---------------|
|-5---5-5-5---5-5-5---5-5---5---------------|
|-3---3-3-3---3-3-3---3-2---3---3-----2v~---|
|----------------------------------5--------|

  cry like this, die like this
  Am             F
|--------------------------------|
|-1---1--1-1---1-----------------|
|-2---2--2-2---2-2---2---2-2---2-|
|-2---2--2-2---2-3---3---3-3---3-|
|-0---0--0-0-0---3---3---3-3---3-|
|----------------1---1---1-1-1---|

  no more favors my ol' friend, I never wanna 
  C5                    Cmaj7/B       
|-------------------------------------------|
|-------------------------------------------|
|-5---5-5-5---5-5-5---5-4---4---------------|
|-5---5-5-5---5-5-5---5-5---5---------------|
|-3---3-3-3---3-3-3---3-2---3---3-----2v~---|
|----------------------------------5--------|

  cry like this, die like this
  Am             F                 Fmaj7
|--------------------------------|-0----------------|
|-1---1--1-1---1-----------------|-0----------------|
|-2---2--2-2---2-2---2---2-2---2-|-2----------------|
|-2---2--2-2---2-3---3---3-3---3-|-3----------------|
|-0---0--0-0-0---3---3---3-3---3-|-3----------------|
|----------------1---1---1-1-1---|-1----------------|

  ah,______
  Asus2 Am  G6  Gsus4  Fmaj7 F   E~ /E7(b9) Am       Asus2
|--------------------|--------------------|---------------------|
|--------------------|--------------------|---------------------|
|-4---5-----4---5----|-4---5-----4--------|-2-------------------|
|--------------------|--------------------|---------------------|
|--------------------|--------------------|---------------------|
|--------------------|--------------------|---------------------|
                                          |
                                          |
                                          |---------------------|
                                          |-----1----0-0--------|
                                          |-2---2----2-2----2---|
                                          |-2---------------2---|
                                          |-0-------------0-----|
                                          |---------------------|

VERSE 2: (1:30)
Am                  Am/G                            
 So we danced alone, 
                      F                  E
But pain is always so betrayed, with our eyes
Am                 Am/G
 But I know now
              F               E
On hearts the faithless can't rely, do dreams make no 

PRE-CHORUS: (1:50)
  sound, as they die                   yeah    she said
  F5            Cmaj7 C/B    Am        Cmaj7   F   G
|-------------|-----0----------------|-0---------------|
|-------------|-----0----------1-----|-0---------------|
|-------------|-----0----------2-----|-0-------2---4---|
|-3-3-3-3-3-3-|-2---2--------2-------|-2-------3---5---|
|-3-3-3-3-3-3-|-3-----2b-(2)-0---0-2-|-3-------3---5---|
|-1-1-1-1-1-1-|----------------------|---------1---3---|

CHORUS: (2:02)
  Love don't call on me again, I never wanna 
  C5                    Cmaj7/B       
|-------------------------------------------|
|-------------------------------------------|
|-5---5-5-5---5-5-5---5-4---4---------------|
|-5---5-5-5---5-5-5---5-5---5---------------|
|-3---3-3-3---3-3-3---3-2---3---3-----2v~---|
|----------------------------------5--------|

  cry like this, die like this
  Am             F
|--------------------------------|
|-1---1--1-1---1-----------------|
|-2---2--2-2---2-2---2---2-2---2-|
|-2---2--2-2---2-3---3---3-3---3-|
|-0---0--0-0-0---3---3---3-3---3-|
|----------------1---1---1-1-1---|

  no more favors my ol' friend, I never wanna 
  C5                    Cmaj7/B       
|-------------------------------------------|
|-------------------------------------------|
|-5---5-5-5---5-5-5---5-4---4---------------|
|-5---5-5-5---5-5-5---5-5---5---------------|
|-3---3-3-3---3-3-3---3-2---3---3-----2v~---|
|----------------------------------5--------|

  cry like this, die like this
  Am             F   
|--------------------------------|
|-1---1--1-1---1-----------------|
|-2---2--2-2---2-2---2---2-2---2-|
|-2---2--2-2---2-3---3---3-3---3-|
|-0---0--0-0-0---3---3---3-3---3-|
|----------------1---1---1-1-1---|

BRIDGE: (2:22)
E            Am Asus E            Am Asus
Remember the nights, by the river side
Dm         Am
No secrets from our sins
        C
And the world would not 
 
  subside
  E5          F5      E5          F5
|-------------------|-------------------|
|-------------------|-------------------|
|-------------------|-------------------|
|-2-2-2-2-2-2-3-3-3-|-2-2-2-2-2-2-3-3-3-|
|-2-2-2-2-2-2-3-3-3-|-2-2-2-2-2-2-3-3-3-|
|-0-0-0-0-0-0-1-1-1-|-0-0-0-0-0-0-1-1-1-|

  yeah,___
  E5          F5
|-------------------|--------------------|
|-------------------|--------------------|
|-------------------|--------------------|
|-2-2-2-2-2-2-3-3-3-|--------------------|
|-2-2-2-2-2-2-3-3-3-|-7---5---3---2b-(2)-|
|-0-0-0-0-0-0-1-1-1-|--------------------|

(2:51)
 And the worst thing, is knowing, that I'll survive
  Am               Am/G             D7sus2/F#
|-------0--------|-------0--------|-------0--------|
|----------1---1-|----------1---1-|----------1---1-|
|-----2------2---|-----2------2---|-----2------2---|
|---2------------|---2------------|---0------------|
|-0--------------|----------------|----------------|
|----------------|-3--------------|-2--------------|
                                                and she said
  E
|-0--------------|---------------|-----------------------------|
|-0--------------|---------------|-----------------------------|
|-1-----------1b-|-(1)-----------|-----------------------------|
|-2--------------|---------------|-----------------------------|
|-2--------------|---------------|-X-----------X---------------|
|-0--------------|-------------X-|---X---X---X---X---X---X-10\-|

CHORUS: (3:06)
  Love don't call on me again, I never wanna 
  C5                    Cmaj7/B       
|-------------------------------------------|
|-------------------------------------------|
|-5---5-5-5---5-5-5---5-4---4---------------|
|-5---5-5-5---5-5-5---5-5---5---------------|
|-3---3-3-3---3-3-3---3-2---3---3-----2v~---|
|----------------------------------5--------|

  cry like this, die like this
  Am             F
|--------------------------------|
|-1---1--1-1---1-----------------|
|-2---2--2-2---2-2---2---2-2---2-|
|-2---2--2-2---2-3---3---3-3---3-|
|-0---0--0-0-0---3---3---3-3---3-|
|----------------1---1---1-1-1---|

  no more favors my ol' friend, I never wanna 
  C5                    Cmaj7/B       
|-------------------------------------------|
|-------------------------------------------|
|-5---5-5-5---5-5-5---5-4---4---------------|
|-5---5-5-5---5-5-5---5-5---5---------------|
|-3---3-3-3---3-3-3---3-2---3---3-----2v~---|
|----------------------------------5--------|

  cry like this, die like this,    cry like this, and die
  Am             F                 Am              Fmaj7
|--------------------------------|-----------------0--------|
|-1---1--1-1---1-----------------|-1---1-1-1---1---0--------|
|-2---2--2-2---2-2---2---2-2---2-|-2---2-2-2---2---3--------|
|-2---2--2-2---2-3---3---3-3---3-|-2---2-2-2---2---2--------|
|-0---0--0-0-0---3---3---3-3---3-|-0---0-0-0-0-----2--------|
|----------------1---1---1-1-1---|-----------------1--------|

Outro: (3:32)
  Asus2 Am                 Fmaj7 F    
|------------------------|-----------------------|
|-10---12-13---15--------|-10--------------------|
|------------------------|-----------------------|
|-7----9--10---12--------|-7---------------------|
|------------------------|-----------------------|
|------------------------|-----------------------|

  Asus2 Am                 Fmaj7 F    
|------------------------|--------------------17-|
|-10---12-13---15--------|-17--------------------|
|------------------------|--------------------14-|
|-7----9--10---12--------|-14--------------------|
|------------------------|-----------------------|
|------------------------|-----------------------|

  Asus2 Am                  Fmaj7 F
|-17-17-17-17-17-17-17-17-|-17-17-17-17-17-17-17-17-|
|-------------------------|-------------------------|
|-14-14-14-14-14-14-14-14-|-14-14-14-14-14-14-14-14-|
|-------------------------|-------------------------|
|-------------------------|-------------------------|
|-------------------------|-------------------------|

  Asus2 Am                  Fmaj7 F
|-15/17-17-17-17-17-17-17-|-17\---------------------|
|-------------------------|----------10/15-10/15-17-|
|-12/14-14-14-14-14-14-14-|-14\---------------------|
|-------------------------|-------------------------|
|-------------------------|-------------------------|
|-------------------------|-------------------------|

  Asus2          Am
|-20---20---20---19---19---19---19---19----|
|---17---17----17---17---17---17---17---17-|
|------------------------------------------|
|------------------------------------------|
|------------------------------------------|
|------------------------------------------|

  Fmaj7            F
|-19-20-20-20-20-20-20-20-20-20-20b---(20)-17-17-|
|------------------------------------------------|
|------------------------------------------------|
|------------------------------------------------|
|------------------------------------------------|
|------------------------------------------------|

  Asus2               Am
|-20---20---20---20---19---19---19---19-----------|
|---17---17---17---17---17---17---17---17---18-18-|
|-------------------------------------------------|
|-------------------------------------------------|
|-------------------------------------------------|
|-------------------------------------------------|

  Fmaj7          F
  ~~~~~~~~~~~~~~~~~~~~~~~~~~~~~~~~~~
|------------------------------------|
|-18-18-18-18-18-18-18---18-18-18-18-|
|------------------------------------|
|------------------------------------|
|------------------------------------|
|------------------------------------|

  Asus2 Am                   Fmaj7   F
|--------------------------|-----------------------|
|-18----17v~---------------|---17-17-17-17\6---17b-|
|--------------------------|-----------------------|
|--------------------------|-----------------------|
|--------------------------|-----------------------|
|--------------------------|-----------------------|

  Asus2       Am
|-----------------------------------|
|---(17)-15p17-15-------------------|
|-----------------17v---17\16-16-16-|
|-----------------------------------|
|-----------------------------------|
|-----------------------------------|

  Fmaj7            F                           (fade out)
|--------------------------------------------|
|--------------------------------------------|
|-16\14-14-14-14\12-12-12\10-10-10-10\9-9-10-|
|--------------------------------------------|
|--------------------------------------------|
|--------------------------------------------|

-----------------------------------

11.LUCK
Tuning- Standard

CHORDS:
B5: X255XX		G5: 355XXX
B5/A: X055XX		A5: 577XXX
B5/G: 3X55XX		E5: 022XXX
B5/E: 0X55XX		C5: X355XX
D: XX023X		F#5: 244XXX
Bm7: X2023X		F5: 155XXX
Gsus2: 3X02XX		E5: 022XXX
Em7: 02203X		D5: X577XX

INTRO:
B5    B5/A    B5/G    B5/E    (2X)

VERSE:
B5           B5/A                      B5/G
It's cold outside in the middle of the winter 
                      B5/E
and my brain's in the fridge
D         Bm7       Gsus2     Em7
Would you know what shape I'm in?
B5                  B5/A                  B5/G                B5/E               
Point things in the better I'm lucky if I even give in to the sin
D         Bm7       Gsus2     Em7
Would you know what shape I'm in?

CHORUS:
         G5       A5     E5
And it's all been luck until now
G5            A5      E5
Caught in the race of up to down

B5    B5/A    B5/G    B5/E    

VERSE 2:
B5          B5/A              B5/G                  B5/E
Photography mixed in monogamy keepin' my world happenin'
D         Bm7       Gsus2
Would you know what shape I'm in?
B5                            B5/A                         
I know that I'm better when I know that your better 
   B5/G            B5/E
and I'll hold you again
D         Bm7       Gsus2
Would you know what shape I'm in?

CHORUS:
         G5       A5     E5
And it's all been luck until now
G5            A5      E5
Caught in the race of up to down
         G5       A5     E5
And it's all been luck until now
G5     A5   C5
I just hope you're still 'round me now

B5    B5/A    B5/G    B5/E    

BRIDGE:
G5         F#5             F5            E5   
It's gonna rage it's gonna stay with you always
F5           E5               D5                   C5
Every second counts on you to prove you're off the ground

GUITAR SOLO:
B5    B5/A    B5/G    B5/E    (4x)

VERSE 3:
B5           B5/A                      B5/G
It's cold outside in the middle of the winter 
                      B5/E
and my brain's in the fridge
B5                  B5/A                  B5/G                B5/E               
Point things in the better I'm lucky if I even give in to the sin

CHORUS:
         G5       A5     E5
And it's all been luck until now
G5            A5      E5
Caught in the race of up to down
         G5       A5     E5
And it's all been luck until now
G5            A5      E5
Caught in the race of up to down
         G5       A5     E5
And it's all been luck until now
G5     A5   C5
I just hope you're still 'round me now, oh__ still hold me now

OUTRO:
B5    B5/A    B5/G    B5/E    (repeat)

---------------------------------

12.DAYS WITH YOU
Tuning- Drop D

CHORDS:
G5: (verses) 5-5-5-7-8-X
F5: (verses) 3-3-3-5-6-X
Bb5: 8-8-8-10-X-X
C5: 10-10-10-12-X-X
G5: (chorus) 5-5-5-X-X-X
G#5: 6-6-X-X-X-X
A5: 5-5-X-X-X-X
Eb5: 1-1-1-3-X-X
F5: (chorus) 3-3-3-X-X-X

Intro:
   G5
|-----------------------------------------------------------------|
|-7-7-7-7-8-8-8-8-7-7-7-7-8-8-8-8-7-7-7-7-8-8-8-8-7-7-7-7-8-8-8-8-|
|-7-7-7-7-7-7-7-7-7-7-7-7-7-7-7-77-7-7-7-7-7-7-7-7-7-7-7-7-7-7-7-|
|-5-5-5-5-5-5-5-5-5-5-5-5-5-5-5-5-5-5-5-5-5-5-5-5-5-5-5-5-5-5-5-5-|
|-5-5-5-5-5-5-5-5-5-5-5-5-5-5-5-5-5-5-5-5-5-5-5-5-5-5-5-5-5-5-5-5-|
|-5-5-5-5-5-5-5-5-5-5-5-5-5-5-5-5-5-5-5-5-5-5-5-5-5-5-5-5-5-5-5-5-|

Verse 1:
  Rains falls down like your alibi 
   G5                             F5
|-----------------------------------------------------------------|
|-7-7-7-7-8-8-8-8-7-7-7-7-8-8-8-8-5-5-5-5-6-6-6-6-5-5-5-5-6-6-6-6-|
|-7-7-7-7-7-7-7-7-7-7-7-7-7-7-7-75-5-5-5-5-5-5-5-5-5-5-5-5-5-5-5-|
|-5-5-5-5-5-5-5-5-5-5-5-5-5-5-5-5-3-3-3-3-3-3-3-3-3-3-3-3-3-3-3-3-|
|-5-5-5-5-5-5-5-5-5-5-5-5-5-5-5-5-3-3-3-3-3-3-3-3-3-3-3-3-3-3-3-3-|
|-5-5-5-5-5-5-5-5-5-5-5-5-5-5-5-5-3-3-3-3-3-3-3-3-3-3-3-3-3-3-3-3-|
(Continue chord structures)

G5                         F5
Thought you held the stars in the sky
     Bb5     C5
Till I found your love, was a 
  
  lie___
  D5    F5    D5    F5/G#5/G5/F5 D5 C5 A5 F5 D5 F5 D5
|--------------------------------------------------|
|--------------------------------------------------|
|--------------------------------------------------|
|-0-0-0-3-3-3-0-0-0--------------------------------|
|-0-0-0-3-3-3-0-0-0-0-3h6-5-3-12-10-7-5-3-0-3-0----|
|-0-0-0-3-3-3-0-0-0-0-3h6-5-3-12-10-7-5-3-0-3-0----|

Chorus:
    Bb5     C5               G5
And I lost the life, and the days with you my love

Verse 2:
G5                   F5
All your lines I can not erase
G5                     F5
Pull your fingers from round my brain
    Bb5          C5         D5 F5 D5 F5/G#5/G5/F5   D5 C5 A5 F5 D5 F5 D5    
But you put this hate, in my eyes

Chorus:
    Bb5        C5              G5
And I love the scars, from the days with you my love

Interlude:
  (G)
|-------------------------------------|
|----13-12-------------13-12----------|
|-12-------10-11-12----------10-11-12-|
|-------------------------------------|
|-------------------------------------|
|-------------------------------------|

  (G)
|-------------------------------------|
|----13-12-------------13b-12/--------|
|-12-------10-11-12-------------------|
|-------------------------------------|
|-------------------------------------|
|-------------------------------------|

Guitar Solo:
  G5               F5
|---------------------------------|
|--------------12-12b---10-8h10p8-|
|-4-7-4-7/9-7---------------------|
|---------------------------------|
|---------------------------------|
|---------------------------------|
  G5                     F5
|-----------------------------------------------------|
|-13-13-12-13-15---15v~--15-15-12-15---15-12p10p8-----|
|-------------------------------------------------10--|
|-----------------------------------------------------|
|-----------------------------------------------------|
|-----------------------------------------------------|

     Bb5     C5             D5 F5 D5 F5/G#5/G5/F5   D5 C5 A5 F5 D5 F5 D5    
Till I found your love, was a lie

Chorus:
    Bb5        C5            G5
But I love the scars, of the days with you my love
Eb5          F5        G5~
Hey,____ hey,_____ ahh,____

Outro:
 (G)
|------------------------------------|
|-13-13-13-13-13---12-12-12-12-12-12-|
|------------------------------------|
|------------------------------------|
|------------------------------------|
|------------------------------------|
(w/guitar feedback and drums; fade out)



**Tabs from Timothy Maxwell,Thanks Dude!!
Related for Natural Selection tab