Guitaretab - guitar tabs
Song name
# A B C D E F G H I J K L M N O P Q R S T U V W X Y Z

Fugazi - Dear Justice Letter tab

Transcribed by Josť David Jacobo December 2007
Questions, comments, complaints, rants?: jdj106@gmail.com

Title: Dear Justice Letter
Artist: Fugazi
Album: Steady Diet of Nothing


(/) Slide Up  () Slide Down  (h) Hammer On  (p) Pull Off  (b) Bend (r) Release (v) Vibrato

Intro and Verse: 00:00 - 00:31
E|-------------------------|
B|-------------------------|
G|-------------------------| *let ring out
D|--6--6--6--6--6----7*----|
A|--5--5--5--5--5----5*----|
E|-------------------------|
(x8)


Chorus: 00:31 - 00:46
E|---------------------------|
B|---------------------------|
G|---------------------------|
D|-----------------7*--------|
A|--3--3--3--3--3--5*-----9--|
E|--1--1--1--1--1---------7--|
(x4)

00:47 - 01:02
E|-------------------------------------------------------------------------------------|
B|-------------------------------------------------------------------------------------|
G|-------------------------------------------------------------------------------------|
D|--7---7--7--7--7--7--7-----------------------7--7--7--7--7--7--7---------------------|
A|--5b*-5b-5b-5b-5b-5b-5b-9--9--9--9--9--9--9--5b-5b-5b-5b-5b-5b-5b-9--9--9--\8-8\7\6--|
E|-----------------------7b-7b-7b-7b-7b-7b-7b-----------------------7b-7b-7b-\6-6\5\4--|
(x2)
*=bend once, don't hold.

01:02 - 01:09

E|--------------|(x4)
B|--------------|
G|--------------|
D|--------------|
A|--4--4--4--4--|
E|--2--2--2--2--|

On 4th time do this:
E|-------------|
B|-------------|
G|-------------|
D|-----2----2--|
A|--4--2----2--|
E|--2--0----0--|


01:09 - 01:24
E|-------------------------------------------------------------------------------------|
B|-------------------------------------------------------------------------------------|
G|-------------------------------------------------------------------------------------|
D|--7---7--7--7--7--7--7-----------------------7--7--7--7--7--7--7---------------------|
A|--5b*-5b-5b-5b-5b-5b-5b-9--9--9--9--9--9--9--5b-5b-5b-5b-5b-5b-5b-9--9--9--/8-8/7/6--|
E|-----------------------7b-7b-7b-7b-7b-7b-7b-----------------------7b-7b-7b-/6-6/5/4--|
(x2)


Back to Verse riff:
[ Tab from: http://www.guitaretab.com/f/fugazi/100708.html ]
01:25 - 01:55
E|-------------------------|
B|-------------------------|
G|-------------------------| *let ring out
D|--6--6--6--6--6----7*----|
A|--5--5--5--5--5----5*----|
E|-------------------------|
(x8)

Chorus riff:
01:56 - 02:10
E|---------------------------|
B|---------------------------|
G|---------------------------|
D|-----------------7*--------|
A|--3--3--3--3--3--5*-----9--|
E|--1--1--1--1--1---------7--|
(x4)

02:11 - 02:47
E|-------------------------------------------------------------------------------------|
B|-------------------------------------------------------------------------------------|
G|-------------------------------------------------------------------------------------|
D|--7---7--7--7--7--7--7-----------------------7--7--7--7--7--7--7---------------------|
A|--5b*-5b-5b-5b-5b-5b-5b-9--9--9--9--9--9--9--5b-5b-5b-5b-5b-5b-5b-9--9--9--/8-8/7/6--|
E|-----------------------7b-7b-7b-7b-7b-7b-7b-----------------------7b-7b-7b-/6-6/5/4--|
(x2)

E|--------------|(x4)
B|--------------|
G|--------------|
D|--------------|
A|--4--4--4--4--|
E|--2--2--2--2--|

On 4th time do this:
E|-------------|
B|-------------|
G|-------------|
D|-----2----2--|
A|--4--2----2--|
E|--2--0----0--|

E|-------------------------------------------------------------------------------------|
B|-------------------------------------------------------------------------------------|
G|-------------------------------------------------------------------------------------|
D|--7---7--7--7--7--7--7-----------------------7--7--7--7--7--7--7---------------------|
A|--5b*-5b-5b-5b-5b-5b-5b-9--9--9--9--9--9--9--5b-5b-5b-5b-5b-5b-5b-9--9--9--/8-8/7/6--|
E|-----------------------7b-7b-7b-7b-7b-7b-7b-----------------------7b-7b-7b-/6-6/5/4--|
(x2)


E|--------------------------------------------------------|
B|--------------------------------------------------------|
G|--------------------------------------------------------|
D|----------6------7------9---------------------------2---|
A|--4-------4------5------7------9--9--9--9--9--------2---|
E|--2*---------------------------7--7--7--7--7etc-----0---|

*strum each chord several times before B

then back to verse riff
E|-------------------------|
B|-------------------------|
G|-------------------------| *let ring out
D|--6--6--6--6--6----7*----|
A|--5--5--5--5--5----5*----|
E|-------------------------|
(x8)

End with this:
E|--------------|(x4)
B|--------------|
G|--------------|
D|--------------|
A|--4--4--4--4--|
E|--2--2--2--2--|
Related for Dear Justice Letter tab