Song name
# A B C D E F G H I J K L M N O P Q R S T U V W X Y Z

Fugazi - Strangelight tab

this is a wonderfull song by Fugazi i hope you like it
comments??
INTRO 1
E|-9-12--9-12-9------9--12h9--------|
B|--------------9h10-------10-10-9--|
G|--------------------------------9-|
D|----------------------------------|
A|----------------------------------|
E|----------------------------------|

INTRO 2
E|-----------------------------------|
B|-----------------------------------|
G|---------0-------------------------|
D|-------5---5-----0-----------------|
A|-----4---------5--5----------------|
E|-------------4---------------------|
Tap to rate this tab
# A B C D E F G H I J K L M N O P Q R S T U V W X Y Z