Song name
# A B C D E F G H I J K L M N O P Q R S T U V W X Y Z

Fugazi - Shut The Door tab

-------------------------------------------------------------------------------
			     Shut the Door - Fugazi
-------------------------------------------------------------------------------
Tabbed by: marginwalker

This should be about 85% accurate

Tuning: Standard

Intro(0:00-0:18)- Guitar 1 (plays the whole time during intro)
e|---------------------------------------------------------------------------|
B|---------------------------------------------------------------------------|
G|---------------------------------------------------------------------------|
D|----9999999999999999-------------------------------------------------------|
A|---------------------------------------------------------------------------|
E|----7777777777777777-...---------------------------------------------------|

Guitar 2 (comes in at about 0:08)
e|---------------------------------------------------------------------------|
B|---------------------------------------------------------------------------|
G|----101010101010101010-----------------------------------------------------|
D|---------------------------------------------------------------------------|
A|----8-8-8-8-8-8-8-8-8-...--------------------------------------------------|
E|---------------------------------------------------------------------------|

Pre-Verse Guitar 1 Riff
e|---------------------------------------------------------------------------|
B|---------------------------------------------------------------------------|
G|--(12-xxxx-12)-12/14-777/9-99----------------------------------------------|
D|--(---xxxx---)-------------------------------------------------------------|
A|--(10-xxxx-10)-10/12-555/7-77----------------------------------------------|
E|---------------------------------------------------------------------------|
----(^^play this before each subsequent repeat of the pre-verse riff)

Pre-Verse Guitar 2 Riff
e|--12+-----12+--------------------------------------------------------------|
B|-----12+------12+----------------------------------------------------------|
G|-----------------12+---12+-------------------------------------------------|
D|-------------------12+-----------------------------------------------------|
A|---------------------------------------------------------------------------|
E|---------------------------------------------------------------------------|

Verse Guitar 2 Riff
e|--12+----------------------------------------------------------------------|
B|-----12+-------------------------------------------------------------------|
G|---------------------------------------------------------------------------|
D|---------------------------------------------------------------------------|
A|---------------------------------------------------------------------------|
E|---------------------------------------------------------------------------|


Pre-Chorus Guitar 1
e|---------------------------------------------------------------------------|
B|---------------------------------------------------------------------------|
G|--12/14-777/9-999----121212121212---12/14-777/9-999---9b-------------------|
D|---------------------------------------------------------------------------|
A|--10/12-555/7-777----101010101010---10/12-555/7-777------------------------|
E|------------------0---------------------------------0----------------------|


Chorus Riff
e|---------------------------------------------------------------------------|
B|---------------------------------------------------------------------------|
G|---------------------------------------------------------------------------|
D|--2-2222-4-4444444-2-2222-4------------------------------------------------|
A|--2-2222-4-4444444-2-2222-4------------------------------------------------|
E|--2-2222-4-4444444-2-2222-4------------------------------------------------|


Part leading up to just bass and drums (2:57-3:17)
e|---------------------------------------------------------------------------|
B|---------------------------------------------------------------------------|
G|--12/14-777/9-999---1212121212----------1212121212121212121212-------------|
D|---------------------------------------------------------------------------|
A|--10/12-555/7-777---1010101010----------1010101010101010101010-------------|
E|------------------0-------------...---------------------------...----------|


3:44-4:13 (listen to the song to get the right rhythm)
e|---------------------------------------------------------------------------|
B|---------------------------------------------------------------------------|
G|---8b-8-----8b-8-----8b-8b-8b-8b-8b-8b-8b-8b-8b-8b-------------------------|
D|---9b-9-----9b-9-----9b-9b-9b-9b-9b-9b-9b-9b-9b-9b-------------------------|
A|---------------------------------------------------...---------------------|
E|---------------------------------------------------------------------------|

Outro Riff
e|---------------------------------------------------------------------------|
B|---------------------------------------------------------------------------|
G|--12/14-777/9-999---1212121212---------------------------------------------|
D|---------------------------------------------------------------------------|
A|--10/12-555/7-777---1010101010---------------------------------------------|
E|------------------0--------------------------------------------------------|


| /  slide up
| \  slide down
| h  hammer-on
| p  pull-off
| ~  vibrato
| +  harmonic
| x  Mute note
===============================================================================
Tap to rate this tab
 
# A B C D E F G H I J K L M N O P Q R S T U V W X Y Z