Song name
# A B C D E F G H I J K L M N O P Q R S T U V W X Y Z

Fugazi - Polish tab

Help us improve GuitareTab! Take a short survey!
Tabbed by:massive melee
Email:

Album:Steady Diet of Nothing

Tuning:standard

Intro/verse
e|------------------------------------------------------------------------|
B|------------------------------------------------------------------------|
G|------------------------------------------------------------------------|
D|-4---4-----4---4--------------4---4-------------4---4------------4---4--|
A|-2---2-----2---2--------3-0-2-2---2-------3-0-2-2---2------3-0-2-2---2--|
E|-2---2-----2---2--333-7-------2---2-333-7-------2---2-333-7------2---2--|


e|--------------------------------------|
B|--------------------------------------|
G|--------------------------------------|
D|-------------6---6-------------4---4--|
A|-------3-0-4-4---4-------3-0-2-2---2--|
E|-333-7-------4---4--333-7------2---2--|

Chorus
e|----------------------------------------|
B|----------------------------------------|
G|-99999999999999-7777--999999999999999---|
D|-99999999999999-7777--999999999999999---| 
A|-77777777777777-5555--777777777777777---|
E|-77777777777777-5555--777777777777777---|

e|------------------------------------|
B|------------------------------------|
G|-5555555555555-141414141414141414---|
D|-5555555555555-141414141414141414---|
A|-3333333333333-121212121212121212---|
E|-3333333333333-121212121212121212---|

Bridge
e|-----------------------------------------------------|
B|-----------------------------------------------------|
G|------------------------------------555--------------|
D|-44444444444444-2222-44444444444444-333-555----------|
A|-44444444444444-2222-44444444444444-----333-555-444--|
E|-22222222222222-0000-22222222222222---------333-222--|



| /  slide up
| \  slide down
| h  hammer-on
| p  pull-off
| ~  vibrato
| +  harmonic
| x  Mute note
===============================================================================
Related for Polish tab