Song name
# A B C D E F G H I J K L M N O P Q R S T U V W X Y Z

Fugazi - Joe No 1 tab

|--------------------------------xx|---------------------------------xx|
|--------------------------------xx|---------------------------------xx|
|----------------------------------|-----------------------------------|
|----------------------------------|-----------------------------------|
|-5----5--7-----5--3-----5------3--|--5----5--7-----5--3-----5--3---3--|
|---------------------------5------|-----------------------------4-----|

|----------------------------------------|
|----------------------------------------|
|----------------------------------------|
|----------------------------------------|
|-------3-3-6p5p7p-7-7-6p5p4p-3-3-6p5p7p-|
|-4--3--1-1--------5-5--------1-1--------|

-----x-----x-|
-----x-----x-|
-x-x---x-x---|
-x-x---x-x---|
-------------|
-------------|

|----------------------------------------|
|----------------------------------------|
|----------------------------------------|
|----------------------------------------|
|-------3-3-6p5p7p-7-7-6p5p4p-3-3-6p5p7p-|
|-4--3--1-1--------5-5--------1-1--------|

----x-----x-|
----x--x--x-|
-x-----x----|
-x----------|
------------|
------------|
Tap to rate this tab
# A B C D E F G H I J K L M N O P Q R S T U V W X Y Z