Song name
# A B C D E F G H I J K L M N O P Q R S T U V W X Y Z

Fugazi - Merchandise tab

Ian:
e-/--x--x--x--x--x--x--x--x--x--x--x--x--/
B-/--x--x--x--x--x--x--x--x--x--x--x--x--/
G-/--x--x--x--x--x--x--x--x--x--x--x--x--/
D-/--x--x--x--5--x--x--x--5--x--x--x--5--/
A-/--x--x--x--x--x--x--x--x--x--x--x--x--/
E-/--x--x--x--x--x--x--x--x--x--x--x--x--/

Guy:
    G   G#  A         E      C
e-/--------------------------------------/
B-/--------------------------------------/
G-/--------------------------------------/
D-/--------------------------------------/
A-/---------------------------33333333---/
E-/-33334444555555555500000000-----------/

Verse:
When we have nothing left to give
There'll be no reason for us to live
But when we have nothing left to choose
You will have nothing left to use

Chorus:
    F#5       B5   F#5     D5
e-/--------------------------------------/
B-/--------------------------------------/
G-/-----------4-4----------7-77-7--------/
D-/-444444444-4-4-44444444-7-77-7--------/
A-/-444444444-2-2-44444444-5-55-5--------/
E-/-222222222-----22222222---------------/
We owe you nothing!
You have no control!

Verse 2:
Merchandise keeps us in line, common sense says it's by design
What could a business man ever want more, than to have us sucking in his
store?

Chorus:
We owe you nothing!
You have no control!

Repeat intro

Bridge:
   G5 G#5 A5     E5      C5
e-/--------------------------------------/
B-/--------------------------------------/
G-/-------------------5------------------/
D-/-5--6--7-----2-----5------------------/
A-/-5--6--7-----2-----3------------------/
E-/-3--4--5-----0------------------------/
You are not what you own!

Chorus

End.
Tap to rate this tab
 
# A B C D E F G H I J K L M N O P Q R S T U V W X Y Z