Song name
# A B C D E F G H I J K L M N O P Q R S T U V W X Y Z

Fugazi - Last Chance For A Slow Dance tab

Main Riff:
e|---------------------------------------|
B|-----3-------------------3-------------|
G|-2/3---3-------------2/3-------------x-|
D|---------2-0---------------222-2p0-----|
A|-------------0---------------------0---|
E|---------------------------------------|

So I'll leave it... outside your door
   G
e|-3~--|
B|-0~--|
G|-0~--|
D|-0~--|
A|-2~--|
E|-3~--|

Back into main riff

But you'll be leavin... the way you came (Play G again)

Chorus:
D              D7                         C G    G   G
Shot shooting, shot shot, shot shooting yourself for what?

D        D7           G        F
To taste all the waste
(Chorus X2)

Back into main riff, then chorus again

Outro:
e|-----------------------------------------------------|
B|-----------------------------------------------------|
G|-----------------------------------------------------|
D|--------5-----------5--------------------------------|
A|----/3---------------5------------5-3----------------|
E|-3-1----------3-1----------3-1----------3-1-----1-3--|

****************************************************************************
Throughout the song, I think Ian plays the outro part through the verses along with the 
bass, but more quiet, then becomes more prominent at the end. He still plays the chorus 
and the "G" break with Guy, though. And Guy plays the main riff alone.
Tap to rate this tab
 
# A B C D E F G H I J K L M N O P Q R S T U V W X Y Z