Fugazi - Sweet And Low tab

e|----------|
B|----------|
G|---5---5--|  
D|---7---7--|  Repeat throughout all verses
A|----------|
E|----------|

Then...
e|-----|
B|-----|
G|--5--|   
D|--5--|
A|-----|
E|-----|

The bass line for the verses:
e|-----------------------------|
B|-----------------------------|
G|-----------------------------|   
D|-----------------------3--3--|
A|--3--3--4--5--3--0-----------|
E|--------------------1--------|

CHORUS:
e|---------------------------------------------------------------------------|
B|-----------------8--8--8--8--------------------8--8--8--8--8--8--8--8--8---|
G|-----------------7--7--7--7-----5 sl. 7--7--7--7--7--7--7--7--7--7--7--7---|
D|--5 sl. 7--7--7------------------------------------------------------------|
A|---------------------------------------------------------------------------|
E|---------------------------------------------------------------------------|

e|---------------------------------------------------------------------------|
B|---------------------------------------------------------------------------|
G|---------------------------------------------------------------------------|
D|-------5-------5 (bend)--5--5--5--5----------------------------------------|
A|--5h7-----5h7--------------------------------------------------------------|
E|---------------------------------------------------------------------------|

Chorus bass line:
e|------------|
B|------------|
G|------------|   
D|------------|
A|--5--3------|
E|--------3---|

e|-------------------------------|
B|-------------------------------|
G|-------------------------------|   
D|-------5-------5--5--5--5--5---|
A|--5h7-----5h7------------------|
E|-------------------------------|
Tap to rate this tab
 
# A B C D E F G H I J K L M N O P Q R S T U V W X Y Z