Song name
# A B C D E F G H I J K L M N O P Q R S T U V W X Y Z

Fugazi - Do You Like Me tab

-----------------------------------------------------------------------------
			DO YOU LIKE ME - Fugazi
-----------------------------------------------------------------------------
Tabbed by: Tom

Tuning: Standard

This song's pretty easy 'cuz it's just two chords,
but it sounds cool 'cuz Fugazi have so much swag.

Listen for timing & strumming patterns etc. etc.

Intro, with lots of scraping & harmonics etc. etc.
e|-----------------------------------------0---------------|
B|-----------------------------------------0---------------|
G|---------x-x-x-x-x---------------x-x-x-x-0---------------|
D|-3---4---x-x-x-x-x---a bunch-----x-x-x-x-0---a bunch-----|
A|-3---4---x-x-x-x-x---------------x-x-x-x-0---------------|
E|-1---2---x-x-x-x-x-------------2-x-x-x-x-0---------------|


Main riff:
e|--------------------------------------------------------------|
B|--------------------------------------------------------------|
G|--------------------------------------------------------------|
D|-9--9--9999--9--9--9999---9--9--9999--15-15-15-15-15-15-15-15-|
A|-9--9--9999--9--9--9999---9--9--9999--15-15-15-15-15-15-15-15-|
E|-7--7--7777--7--7--7777---7--7--7777--13-13-13-13-13-13-13-13-|

Verse:
e|---------------------------------------|
B|---------------------------------------|
G|---------------------------------------|
D|-9---------15-15---9--------15-15------|
A|-9-Yr eyes-15-15---9-etc----15-15------|
E|-7---------13-13---7--------13-13------|

Chorus:
e|----------------------------------------------------|
B|----------------------------------------------------|
G|----------------------------------------------------|
D|-9--------------------------------------------------|
A|-9--Do you like me? -----Do you like me?-------etc--|
E|-7------------------/13\-----------------/13\-------|

 Lockheed! Lockheed! Martin Marietta!
e|-------------------------------------|
B|-------------------------------------|
G|-------------------------------------|
D|-9--9--9--9--15-15-15-15-15-15-15-15-|
A|-9--9--9--9--15-15-15-15-15-15-15-15-|
E|-7--7--7--7--13-13-13-13-13-13-13-13-|

Bridge thingy:
e|------------------------------------------------|
B|------------------------------------------------|
G|11-11-11-11-11-11-11-11-11-11-11-11-10-10-10-10-|
D|------------------------------------------------|
A|-9--9--9--9--9--9--9--9--9--9--9--9--8--8--8--8-|
E|------------------------------------------------|

e|------------------------------------------------|
B|------------------------------------------------|
G|13-13-13-13-13-13-13-13-14-14-14-14-14-14-14-14-|
D|------------------------------------------------|
A|11-11-11-11-11-11-11-11-12-12-12-12-12-12-12-12-|
E|------------------------------------------------|

Lick! (the other gtr's still doin' above)
e|-------------------------------------|
B|-------------------------------------|
G|-----11~--------11-9~-9-----9-9------|
D|-9-9--------9-9---------10------10---|
A|-------------------------------------|
E|-------------------------------------|

B           F
I got a question!

etc.
Tap to rate this tab
 
# A B C D E F G H I J K L M N O P Q R S T U V W X Y Z