Song name
# A B C D E F G H I J K L M N O P Q R S T U V W X Y Z

Fugazi - Strangelight tab

Intro ...

E --9--12--9--12--9-------9----12p9------------------9--10-10--9--7p0-----|
B --------------------12-------------10--9--------------------------------|
G -------------------------------------------11--11-----------------------|
D ------------------------------------------------------------------------|
A ------------------------------------------------------------------------|
E ------------------------------------------------------------------------|

     (2x)
E -----------------------------------------------------------------------------------|
B ------0-------------------0------------------------0-------------------0-----0---- |
G ----3---0-------0-------3---0----------0--------0-----------0-------0------3--3----|
D --4-----------1---0---4--------------0--------0-----------0-------0------4---------|
A ------------2----------------------1--------------------1------------------------- |
E ---------------------------------2----------3---------2----------3-----------------|


Verse...

        (last bar only the first 4 times)
E -----------------------------------------------------------------------------------||
B ------0-------------------0-----------------------0------------------0-------0---- ||
G ----3---0-------0-------3---0----------0-------0-----------0------0-------3---3---*||
D --4-----------1---0---4--------------0-------0-----------0------0------4----------*||
A ------------2----------------------1-------------------1-------------------------- ||
E ---------------------------------2---------3---------2---------3------------------ ||

     ______________      (1st "Chorus", somewhat chaotic)
    /5.
E -------------- || ----------------------------------------------------------------- ||
B -------------- || ----------------------------------------------------------------- ||
G -------------- ||*-----------------------------------------2-2-----2-2-------------*||
D --4--4--5--4---||*---------------------------------2-2-3-3-----3-3-----------0-0---*||
A -------------- || --2---5-2---0h2--5-2---0h2--5-5-------------------------0-------- ||
E -------------- || -------------------------------------------------------2--------- ||


(Let ring the E string before going on with the verse)

Same verse as before, this following guitar part adds up to the next chorus:

E ----------------------------------------------------------------------||
B ----------------------------------------------------------------------||
G ---------------------------------------------------------------------*||
D ---------------------------------------------------------------------*||
A --2-2-5-2-5--2---0-2-5--2-0-2--------4----5----4---4-4-4-5-5-4-4-4----||
E ---------------------------------2-2----2----2-----2-2-2-2-2-2-2-2--- ||
                                              (Come on over...)

(Last bar isn't always played)

Have fun with the outro, which seems to be built around a chord progession like ||: G-G#-A-Bb-B :||
That goes on and on:
E -----------------------------|
B -----------------------------|
G -----------------------------|
D ---------2-2p3h2-------------|
A --2-2-5-----------5-2-5------|
E -----------------------------|
Tap to rate this tab
# A B C D E F G H I J K L M N O P Q R S T U V W X Y Z