Song name
# A B C D E F G H I J K L M N O P Q R S T U V W X Y Z

Fugazi - Im So Tired tab

-------------------------------------------------------------------------------
                             I'M SO TIRED - Fugazi
-------------------------------------------------------------------------------
Tabbed by: min0r_threat
E-mail: ngrantj@yahoo.com

Tuning: Standard

I transcribed the piano into guitar and the solo is by ear, I think it sounds pretty good.

VERSE
e|--------------------------|
B|--------------------------|
G|----------4-----------5---|
D|----5-----4-----2-----5---|
A|----5---2-2-----2---3-3---|
E|--3-3--------0-(0)--------|
             (let ring)

BRIDGE
e|-----------------------------|
B|-----------------------------|
G|-----------------------------|
D|----5-----5--5\3--3-----3----|
A|----5-----5--5\3--3-----3----|
E|--3-3---3-3--3\1--1---1-1----|

SOLO
e|---------------------------------------------------------------------------|
B|-------------------------------------------4--4-5----------------4--4-5----|
G|--2/4---5-4-0-2-4--4-2--2-1---5-4-0-2-4--4----------5-4-0-2-4--4-----------|
D|---------------------------------------------------------------------------|
A|---------------------------------------------------------------------------|
E|---------------------------------------------------------------------------|

e|---------------|
B|---------------|
G|--5-4-2-0------|
D|----------5----|
A|---------------|
E|---------------|

SONG STRUCTURE:

VERSE x4
BRIDGE
VERSE x4
BRIDGE
SOLO
VERSE x4
END with single -5- after last VERSE
                -5-
                -3-

And that's it!
Tap to rate this tab
 
# A B C D E F G H I J K L M N O P Q R S T U V W X Y Z