Song name
# A B C D E F G H I J K L M N O P Q R S T U V W X Y Z

Fugazi - Bad Mouth tab

This should be pretty accurate

Intro
e|-----------------------|
b|-----------------------|
g|-----------------------|
d|-------7----------7-6--|x5
a|---445~------445~------|
E|00-000~---00-000~------|

Bridge
   E5     A     B   Dsus2
e|------------------------|
b|------------------33-33-|
g|99999-66666-88888-22-22-|
d|99999-77777-99999-00-00-|
a|77777-77777-99999-------|
E|------55555-77777-------|

Verse
e|-----------------------------|--------------------------|
b|----------------------333333-|---------------------3-33-|
g|999999----------------222222-|999999---------------2-22-|
d|999999-777777-999999---------|999999-777777-999999-0-00-| There is a lot of palm muting
a|777777-777777-999999---------|777777-777777-999999------|
E|-------555555-777777---------|-------555555-777777------|

e|------------------------|
b|---------------------3~-|
g|---------------------2~-|
d|77-66-55-44-33-33333-0~-|x2
a|77-66-55-44-33-33333----|
E|55-44-33-22-11-11111----| 

Palm mute this part
e|------------------------------|
b|------------------------3-333-|
g|------------------------2-222-|
d|777-666-555-444-3333333-0-000-|
a|777-666-555-444-3333333-------|
E|555-444-333-222-1111111-------|

Outro- same as the intro. ends on an E major.
e|-----------------------|   |----|
b|-----------------------|   |----|
g|-----------------------|   |1~~-|
d|-------7----------7-6--|x4 |2~~-|
a|00-445~---00-445~------|   |2~~-|
E|00-000~---00-000~------|   |----|
Tap to rate this tab
# A B C D E F G H I J K L M N O P Q R S T U V W X Y Z