Song name
# A B C D E F G H I J K L M N O P Q R S T U V W X Y Z

Fugazi - Promises tab

Regular tuning


intro/verses
e|-------------------|-------------------|
B|-------------------|-------------------|
G|-------------------|-------------------|
D|------2-----2---2--|------2---2--------|
A|--4-4---4-4---4----|--4-4---4----3-----|
E|-------------------|-------------------|

bass start verse                  bass verse & chorus    
G|------------------------------|--------------------------|
D|------------------------------|--------------------------|
A|-------------------------4----|-999999999\---------4-----|
E|-7-7-7-\-2-2-2-2-/-5-5-5---4--|------------2222-/4---5---|

chorus
e|-------------------------------------------------------------|
B|-------------------------------------------------------------|
G|------------14---13------11-----4-----------------14----13---|
D|-4-4-4-4-4----------------------------4-4-4-4-4--------------|
A|-4-4-4-4-4--12---11------9------2-----4-4-4-4-4---12----11---|
E|-2-2-2-2-2----------------------------2-2-2-2-2--------------|

e|-------------------------------------------------------------|
B|-------------------------------------------------------------|
G|---9\-6/-9\-4/-9\-6\-4/-6--------------14---13------7----4---|
D|---------------------------4-4-4-4-4-------------------------|
A|---7\-4/-7\-2/-7\-4\-2/-4--4-4-4-4-4---12---11------9----2---|
E|---------------------------2-2-2-2-2-------------------------|

e|--------------------------------|
B|--------------------------------|
G|--------------14---13---9---11--|
D|--4-4-4-4-4---------------------|
A|--4-4-4-4-4---12---11---7---9---|
E|--2-2-2-2-2---------------------|

You will do what you do
e|---------------------------------|
B|---------------------------------|
G|--------------------------6------|
D|-9-9-9\-4---4-4-4-7-7-7-7-6-6----|
A|-9-9-9\-4---4-4-4-7-7-7-7-4-6----|
E|-7-7-7\-2---2-2-2-5-5-5-5---4----|

interlude
e|---------------------------|
B|---------------------------|
G|---------------------------|
D|-4-----4---4/6\4------2----|
A|-----2---2----------4---4--|
E|---------------------------|

outro
Go where you think you...
all palm muted
e|------------------|--------------------|
B|------------------|--------------------|
G|------------------|---2--2-2-----------|
D|-444444444-----2--|-44-44-4--------2---|
A|----------22224-4-|----------222224-4--|
E|------------------|--------------------|

Ending is climbing octaves with no respect to key. 
Make as much noise as possible!


Tap to rate this tab
 
# A B C D E F G H I J K L M N O P Q R S T U V W X Y Z