Song name
# A B C D E F G H I J K L M N O P Q R S T U V W X Y Z

Fugazi - Last Chance For A Slow Dance tab

Artist: Fugazi
Song: "Last Chance for a Slow Dance"
Album: In on the Kill Taker (1993)

Standard Tuning



Main/Verse riff:

Guitar R (Guy Picciotto)

e|------------------------------------||
B|-----3---------------3--------------||
G|-2/3---3---------2/3---33-----------||
D|---------2^0-------------2-2-2^0-00-||
A|-------------0----------------------||
E|------------------------------------||

Plus the break on every 8th measure of the verse:

   Gm
e|-0~--------------0-------------x----|
B|-3~--------------3----x-------x-----| play dissonant harmonics 
G|-3~-------------(3)---x------x------| + behind the bridge strums
D|-0~---------------------------------| + pick slides into chorus
A|-x~---------------------------------|
E|-3~---------------------------------|


Guitar L (Ian MacKaye)

e|------------------------------------|
B|------------------------------------|
G|------------------------------------|
D|------------------------------------|
A|------------------------------------|
E|-1~--------------------------8~-----|
+
e|------------------------------------|
B|------------------------------------|
G|------------------------------------|
D|------------------------------------|
A|-10~--------------------------------|
E|-----------------------------3~-----|
+
e|------------------------------------|
B|------------------------------------|
G|------------------------------------|
D|------------------------------------|
A|-----------------------------10~----|
E|\1~---------------------------------|
+
e|------------------------------------|
B|------------------------------------|
G|------------------------------------|
D|------------------------------------|
A|------------------------------------|
E|-10~-------------------------3~-----|
+
e|------------------------------------|
B|------------------------------------|
G|------------------------------------|
D|------------------------------------|
A|------------------------------------|
E|\1~--------------------------10~----|
+
e|------------------------------------|
B|------------------------------------|
G|------------------------------------|
D|------------------------------------|
A|------------------------------------|
E|\8~--------------------------3~-----|
+
e|------------------------------------|
B|------------------------------------|
G|------------------------------------|
D|------------------------------------|
A|------------------------------------|
E|\1~--------------------------1~-----|
+
e|------------------------------------|
B|------------------------------------|
G|------------------------------------|
D|------------------------------------|
A|------------------------------------|
E|\3~---------------------------------|


Chorus:

Guy:
   D               Db/D                 G
e|-2~--------------1~-------------------3~--------------3--------3--------3|
B|-3~--------------2~-------------------0~--------------0--------0--------0|
G|-2~--------------1~-------------------0~--------------0--------0--------0|
D|-0~--------------0~-------------------0~--------------0--------0--------0|
A|----------------------------------3-2-x---------------x--------x--------x|
E|--------------------------------------3~--------------3--------3--------3|
+
   D               Db/D                 G               Fsus2
e|-2~--------------1~-------------------3~--------------1~-----------------||
B|-3~--------------2~-------------------0~--------------1~-----------------||
G|-2~--------------1~-------------------0~--------------0~-----------------||
D|-0~--------------0~-------------------0~--------------3~-----------------||
A|----------------------------------3-2-x---------------3~------------x\---||
E|--------------------------------------3~--------------1~-----------------||

Ian:
   D               Db/D                 G
e|-------------------------------------------------------------------------|
B|-------------------------------------(0)---------------------------------|
G|--------------------------------------0~--------------0--------0--------0|
D|-7~--------------6~-------------------0~--------------0--------0--------0|
A|-5~--------------5~---------------3-2-x---------------x--------x--------x|
E|(5)-------------(4)-------------------3~--------------3--------3--------3|
+
   D               Db/D                 G               Fsus2
e|-------------------------------------------------------------------------||
B|-------------------------------------------------------------------------||
G|--------------------------------------0~---------------------------------||
D|-7~--------------6~-------------------0~--------------0~-----------------||
A|-5~--------------5~---------------3-2-x---------------x~------------x\---||
E|(5)-------------(4)-------------------3~--------------1~-----------------||


End with Ian's (and Joe's bass) riff.

That's it.
Please feel free to leave comments, corrections, and suggestions.
Cheers!
-Bennyshambles78-
Tap to rate this tab
 
# A B C D E F G H I J K L M N O P Q R S T U V W X Y Z