Song name
# A B C D E F G H I J K L M N O P Q R S T U V W X Y Z

Fugazi - Latest Disgrace tab

Artist/Band: Fugazi
Song: "Latest Disgrace"
Album: Red Medicine (1995)

Standard Tuning

Intro (goes through first verse with Ian playing)
Ian & Guy
 palm-muted and left-hand muted
e|------------------------------------------------||
B|------------------------------------------------||
G|XxXxXxXxXxXxXxXxXxXxXxXxXxXxXxXxXxXxXxXxXxXxXxXx||
D|------------------------------------------------||
A|------------------------------------------------||
E|------------------------------------------------||

Verse riff I
Guy
  [played lightly with fingers]
e|------------------------------------------------|
B|------------------------------------------------|
G|----------------------------10-10-10-10-10-10-10|
D|----------------------------10-10-10-10-10-10-10|
A|----------------------------8--8--8--8--8--8--8-|
E|-9^-0--0--9----9--0-----------------------------|
+
Verse riff II
  [played lightly with fingers____________________]
e|------------------------------------------------|
B|------------------------------------------------|
G|------------------------------------------------|
D|------------------------------------------------|
A|-------------------------------------------10-12|
E|-9^-0--0--9--10-11-10-8--10-11-10-8--10-11------|

Play Verse riff I with Verse riff II x4,
 then play one more passing Verse riff I before the...

Chorus riff I
Ian (Guy plays open string feedback during this riff)
e|------------------------------------------------|
B|------------------------------------------------|
G|------------------------------------------------|
D|----------5--------7----------------5--7--------|
A|-7-------(0)-------0--------5--7----------------|
E|(0)---------------------------------------------|
+
Chorus riff II
Ian and Guy together
e|------------------------------------------------|
B|------------------------------------------------|
G|------------------------------------------------|
D|------------------------------------------------|
A|-5--5-----5--3--3-----3--2--2--------0-----0----|
E|----------------------------------2-----2-------|
+
Chorus riff I
with Guy's chorus riff/lead fill
e|----10\---7--7\----5--5\-------3--------5-------|
B|----12\---9--9\----7--7\----5-----5--5--------5-|
G|------------------------------------------------|
D|------------------------------------------------|
A|------------------------------------------------|
E|------------------------------------------------|
+
Chorus riff II (Ian only)
with Guy's chorus riff/lead fill continued
e|----------------3-----3--5--5--5--5--5--5--5----|
B|-------3--5--------5-----5--5--5--5--5--5--5----|
G|-3--5-------------------------------------------|
D|------------------------------------------------|
A|------------------------------------------------|
E|------------------------------------------------|
+
Chorus riff I
Ian
Guy plays feedback during this, but approximated below
e|-19----19----19----19----19----19----19----19---|
B|------------------------------------------------|
G|------------------------------------------------|
D|------------------------------------------------|
A|------------------------------------------------|
E|------------------------------------------------|
+
Chorus riff II
Ian and Guy together
+
Chorus riff I
with Guy's chorus riff/lead fill
+
Chorus riff II
Ian (palm-muted)
with Guy's chorus riff/lead fill continued
e|------------------------------------------------|
B|------------------------------------------------|
G|------------------------------------------------|
D|-------------------------------------7-----7----|
A|-5--5-----5--3--3-----3--2--2----/9-----9-------|
E|------------------------------------------------|

Verse riff I (alt) x5
Ian[-palm muted-------------------------------------|
e|--------------------------------------------------|
B|--------------------------------------------------|
G|----------------------------10-10-10-10-10-10-10--|
D|----------------------------10-10-10-10-10-10-10--|
A|----------------------------8--8--8--8--8--8--8---|
E|-0--9--9--0----0--9-------------------------------|
+
Verse riff II (alt) x4
Ian [slight feedback]
e|------------------------------------------------|
B|------------------------------------------------|
G|------------------------------------------------|
D|-------------------X--x-------------------------|
A|-10~---------------X--x-------------------------|
E|-------------------X--x-------------------------|
+
Guy (same as first verse)
Verse riff I with Verse riff II x4
Verse riff I x1

Chorus riff I
Ian (Guy plays open string feedback during this riff)
+
Chorus riff II
Ian and Guy together
+
Chorus riff I
with Guy's chorus riff/lead fill
+
Chorus riff II (Ian only)
with Guy's chorus riff/lead fill continued
+
Chorus riff II
Ian and Guy together
+
Chorus riff I
with Guy's chorus riff/lead fill
+
Chorus riff III
Guy
e|------------------------------------------------|
B|------------------------------------------------|
G|------------------------------------------------|
D|-------5--7--------------------5--7-------------|
A|-5--7--------------------5--7-------------------|
E|------------------------------------------------|
+
Ian (pick scrape down the neck on the D or A string)
e|------------------------------------------------|
B|------------------------------------------------|
G|------------------------------------------------|
D|----------------------X\------------------------|
A|------------------------x\----------------------|
E|------------------------------------------------|

Bridge x8
Guy
e|------------------------------------------------||
B|------------------------------------------------||
G|-4--4-----5--5-----4--4-----9--9-----4--4-/5--5-||
D|-4--4-----5--5-----4--4-----9--9-----4--4-/5--5-||
A|-2--2-----3--3-----2--2-----7--7-----2--2-/3--3-||
E|------------------------------------------------||
+
Ian
e|------------------------------------------------||
B|------------------------------------------------||
G|----------------------------9--9----------------||
D|-9--9-----10-10----9--9-----9--9-----9--9-/10-10||
A|-9--9-----10-10----9--9-----7--7-----9--9-/10-10||
E|-7--7-----8--8-----7--7--------------7--7-/8--8-||
+ End of Bridge x1
e|------------------------------------------------|
B|------------------------------------------------|
G|------------------------------------------------|
D|-7~---------------------------------------------|
A|-7~---------------------------------------------|
E|-5~-------------------5^(slow bend)-------------|
+
Guy
e|------------------------------------------------|
B|------------------------------------------------|
G|------------------------------------------------|
D|------------------------------------------------|
A|-5--5--5--5--3--3--3--3--2--2--2--2-------------|
E|-------------------------------------2--2--2--2-|
+
Ian
e|------------------------------------------------|
B|------------------------------------------------|
G|------------------------------------------------|
D|-12-12-12-12-10-10-10-10-9--9--9--9--4--4--4--4-|
A|-x--x--x--x--x--x--x--x--x--x--x--x--x--x--x--x-|
E|-10-10-10-10-8--8--8--8--7--7--7--7--2--2--2--2-|

Outro
Guy x1
e|------------------------------------------------|
B|------------------------------------------------|
G|----9--9--9--9-\7--7--7-/9--9--9----------------|
D|----11-11-11-11\9--9--9-/11-11-11---------------|
A|-------------------------------------11-10-9--7-|
E|------------------------------------------------|
+ x2
e|------------------------------------------------||
B|------------------------------------------------||
G|----9--9--9--9-\7--7--7-/9--9--9----------------||
D|----11-11-11-11\9--9--9-/11-11-11---------------||
A|-0-----------------------------------11-10-9--7-||
E|------------------------------------------------||
+ x1
e|------------------------------------------------|
B|------------------------------------------------|
G|----9--9--9--9-\7--7--7-/9~---------------------|
D|----11-11-11-11\9--9--9-/11~--------------------|
A|-0----------------------------------------------|
E|------------------------------------------------|
+Guy x1
e|------------------------------------------------|
B|------------------------------------------------|
G|-9--9--9--9--9-\7--7--7-/9--9--9----------------|
D|-11-11-11-11-11\9--9--9-/11-11-11---------------|
A|-0-----------------------------------11-10-9--7-|
E|------------------------------------------------|
+ x2
e|------------------------------------------------||
B|------------------------------------------------||
G|-9--9--9--9--9-\7--7--7-/9--9--9----------------||
D|-11-11-11-11-11\9--9--9-/11-11-11---------------||
A|-0-----------------------------------11-10-9--7-||
E|------------------------------------------------||
+ x1
e|----------------------------|
B|----------------------------|
G|-9--9--9--9--9-\7--7--7-/9--|
D|-11-11-11-11-11\9--9--9-/11-|
A|-0--------------------------|
E|----------------------------|
END

Ian x1
e|------------------------------------------------|
B|----55-55-55-5----------------------------------|
G|----66-66-66-6----------------------------------|
D|-------------------------------------6--5--4--2-|
A|------------------------------------------------|
E|------------------------------------------------|
+ x2
e|------------------------------------------------||
B|----55-55-55-5----------------------------------||
G|----66-66-66-6----------------------------------||
D|-------------------------------------6--5--4--2-||
A|-0----------------------------------------------||
E|------------------------------------------------||
+ x1
e|----------------------------9------10-----11----|
B|----55-55-55-5-----------------8------9------10-|
G|----66-66-66-6-------------------7------8-------|
D|------------------------------------------------|
A|-0----------------------------------------------|
E|------------------------------------------------|
+ x3
e|------------------------------------------------||
B|------------------------------------------------||
G|------------------------------------------------||
D|-7--7--7--7--7--7--7--7--7--7--7-----6--5--4----||
A|-7--7--7--7--7--7--7--7--7--7--7--7-----------7-||
E|-5--5--5--5--5--5--5--5--5--5--5----------------||
+ x1
e|------------------------|
B|------------------------|
G|------------------------|
D|-7--7-------------------|
A|----------7--7----------|
E|-------------------5--5-|
END


That's it.  This one is kind of complicated as far as Fugazi songs go, so if you have 
any questions, comments, suggestions, please feel free to respond.
Cheers,
-Bennyshambles78-
Tap to rate this tab
 
# A B C D E F G H I J K L M N O P Q R S T U V W X Y Z