Song name
# A B C D E F G H I J K L M N O P Q R S T U V W X Y Z

Fugazi - Public Witness Program tab

Fugazi- Public Witness Program


Standard Tuning- EADGBe


Intro:

Repeat chord until verse

e|--------|
B|--------|
G|---7----|
D|---7----|
A|---5----|
E|--------|


Verse:

e|-----------------|     |-----------------|
B|-----------------|     |-----------------|
G|-----------------|  x4 |--6--------------|
D|--4---7---9---4--|     |--6---2---4---4--|
A|--4---7---9---4--|     |--4---2---4---4--|
E|--2---5---7---2--|     |--4---0---2---2--|


e|-----------------|     |-----------------|
B|-----------------|     |-----------------|
G|-----------------|  x4 |--6--------------|
D|--4---7---9---4--|     |--6---2---4---4--|
A|--4---7---9---4--|     |--4---2---4---4--|
E|--2---5---7---2--|     |--4---0---2---2--|


Chorus:

Guitar 1

e|-----------------|
B|-----------------|
G|----------6------| x4
D|--4---7---6---2--|
A|--4---7---4---2--|
E|--2---5---4---0--|


Guitar 2

e|--------------|
B|--------------|
G|--6--5--6--4--|
D|--------------|
A|--------------|
E|--------------|

Then it carries on with just the bass but the guitar comes in at the end of
both bars:


e|-------------------------------|
B|-------------------------------|
G|-------------------------------|
D|--------------2-2-2-2-2-2-2-2--|x2
A|--------------2-2-2-2-2-2-2-2--|
E|--------------0-0-0-0-0-0-0-0--|


Solo:

Guitar 1

e|--------------------------------------------------------------------|
B|--2-2-2-2-2-2-2-2-2-1-1-1-1-1-1-1-1-2-2-2-2-2-2-2-2-0-0-0-0-0-0-0-0-|
G|--------------------------------------------------------------------|
D|--------------------------------------------------------------------|
A|--------------------------------------------------------------------|
E|--------------------------------------------------------------------|


e|----------------------------------------------------2-2-2-2-2-2-2-2-|
B|--2-2-2-2-2-2-2-2-2-1-1-1-1-1-1-1-1-2-2-2-2-2-2-2-2-----------------|
G|--------------------------------------------------------------------|
D|--------------------------------------------------------------------|
A|--------------------------------------------------------------------|
E|--------------------------------------------------------------------|

The second guitar comes in after this and the first guitar carries on 
playing:

e|----------------------------------------------------2-2-2-2-2-2-2-2-|
B|--2-2-2-2-2-2-2-2-2-1-1-1-1-1-1-1-1-2-2-2-2-2-2-2-2-----------------|
G|--------------------------------------------------------------------|
D|--------------------------------------------------------------------| x2
A|--------------------------------------------------------------------|
E|--------------------------------------------------------------------|


Guitar 2

e|--2-2-2-2---------2-2-2-2--------------------------2-2-2-2----------|
B|----------2-2-2-2---------2-2-2-2----------2-2-2-2---------0-0-0-0--|
G|-----------------------------------1-1-1-1--------------------------| x2
D|--------------------------------------------------------------------|
A|--------------------------------------------------------------------|
E|--------------------------------------------------------------------|


Bridge:

e|--------------|
B|--------------|
G|--7--7--6-----|
D|--7--7--6--2--|
A|--5--5--4--2--|
E|-----------0--|


Chorus:

e|-----------------|
B|-----------------|
G|----------6------| x4
D|--4---7---6---2--|
A|--4---7---4---2--|
E|--2---5---4---0--|


Outro:

e|--------|
B|--------|
G|---7----|
D|---7----|
A|---5----|
E|--------|


Listen to the song to get the rhythm, it's pretty easy to pick out:

http://www.youtube.com/watch?v=eimPNp7AaZk
Tap to rate this tab
# A B C D E F G H I J K L M N O P Q R S T U V W X Y Z