Song name
# A B C D E F G H I J K L M N O P Q R S T U V W X Y Z

Fugazi - Blueprint tab

-------------------------------------------------------------------------------
			     SONG NAME - Band Name
-------------------------------------------------------------------------------
Tabbed by: Venezuelan cinephile
E-mail: victorsellanes@hotmail.com

Intro

e|-------------------------------------|
B|-------------------------------------| x6
G|-------------------------------------|
D|---11 (x8)---11-(x8)-11-(x8)-9-(x8)--|
A|---9---------0-------9-------9-------|
E|-------------------------------------|

Verse "I'm not playing with you" until "It's our blueprint, baby"

e|----------------------------------|
B|----------------------------------| Repeat several times
G|--11-(x8)---------11-(x8)---------|
D|--11------11-(x8)-11------9-(x8)--|
A|--9-------0-------9-------9-------|
E|----------------------------------|
 The first one is with distortion, the second one, no.
e|-----------------|
B|-----------------|
G|--10-------------|
D|--10-(x4)7-(x8)--|
A|--8------7-------|
E|---------5-------|

Right before "Nevermind.."
e|-------------------------------------------------------------------------------|
B|-------------------------------------------------------------------------------|
G|--9-(x17)----------------------------------------------------------------------|
D|-------------------------------------------------------------------------------|
A|-------------------------------------------------------------------------------|
E|-------------------------------------------------------------------------------|
 "Nevermind what your selling..."
e|------------------------------------------------------------------------------------|
B|------------------------------------------------------------------------------------|
G|------------7-----------------------------------------------------------------------|
D|--7------6--7-(x9)------------------------------------------------------------------|
A|--7-(x9)-6--5-----------------------------------------------------------------------|
E|--5------4--------------------------------------------------------------------------|
 "Got no way"
e|------------------------|
B|------------------------|
G|----------------5-------|
D|--5------4------5-(x5)--|
A|--5-(x1)-4-(x1)-3-------|
E|--3------2--------------|
 End with
e|------------------------------------------------------------------------------|
B|------------------------------------------------------------------------------|
G|-5----------------------------------------------------------------------------|
D|-5----------------------------------------------------------------------------|
A|-3----------------------------------------------------------------------------|
E|------------------------------------------------------------------------------|

e|---------------------------------------------------------------------------|
B|---------------------------------------------------------------------------|
G|---------------------------------------------------------------------------|
D|---------------------------------------------------------------------------|
A|---------------------------------------------------------------------------|
E|---------------------------------------------------------------------------|


************************************

| /   slide up
| \   slide down
| h   hammer-on
| p   pull-off
| ~   vibrato
| +   harmonic
| x   Mute note
| b   Bend
| pb  Pre-bend
| br  Bend release
| pbr Pre-bend release
| brb Bend release bend

************************************
Tap to rate this tab
# A B C D E F G H I J K L M N O P Q R S T U V W X Y Z