Song name
# A B C D E F G H I J K L M N O P Q R S T U V W X Y Z

Fugazi - Latest Disgrace tab

Fugazi - Latest Disgrace, Intro

Tabbed by Johan Delaire

The tab is not perfect but it's ok. It is not the exact amount
of x's and you have to find the timing yourself.

E|---------------------------------|
B|---------------------------------|
G|---------------------------------|
D|-xxxxxxxxxxxxxxxxxxxxxxxxxxxxxxxx|
A|-xxxxxxxxxxxxxxxxxxxxxxxxxxxxxxxx|
E|---------------------------------|


E|-----------------------------------------------|
B|-----------------------------------------------|
G|-----------------------------------------------|
D|----------------10-10-10-10-10-10-10-----------|
A|-11-------------8--8--8--8--8--8--8------------|
E|-9--0-0-9--9-0---------------------------------|


E|-------------------------------------------------------|
B|-------------------------------------------------------|
G|-------------------------------------------------------|
D|-------------------------------------------------------|
A|-11--------------------------------------------10-12---|
E|-9--0--8-11-10--8-10-11-10--8-10-11-10--8-10-11--------|


If you have questions, comments or corrections sent it to johan_delaire@hotmail.com
Tap to rate this tab
 
# A B C D E F G H I J K L M N O P Q R S T U V W X Y Z