Song name
# A B C D E F G H I J K L M N O P Q R S T U V W X Y Z

Fugazi - Long Division tab

-------------------------------------------------------------------------------
			     LONG DIVISION - Death Cab for Cutie
-------------------------------------------------------------------------------
Tabbed by: A.J. Conner
Email: ajconner123@gmail.com

Tuning: EADGBe, CAPO 3RD FRET

The other tab for this song was way off.
Hope you find some use out of this.
Remember, capo 3rd fret, fret numbers relative to capo.

   MAIN RIFF -Verse (His head was a city...) 
e|---------------------------------------------------------------------------|
B|---------------------------------------------------------------------------|
G|-----8-----------4---4--------------------------Repeat---------------------|
D|-------6----------------6====----------------------------------------------|
A|---------6=====4---4-------------------------------------------------------|
E|--0=======-----------------------------------------------------------------|

  Bridge riff (Once it started...Oh ho ho) This is also the pre-chorus riff.
  (Cause he had sworn not to be what he'd been before) 
e|--000-0-0-0-0-0-0-0-0-0-0-0-0----0-0-0-0-0-0-------------------------------|
B|--000-0-0-0-0-0-0-0-0-0-0-0-0----0-0-0-0-0-0---This-chord------------------|
G|--444-4-4-4-4-4-4-4-4-4-4-4-4----1-1-1-1-1-1---is-only-played--------------|
D|--222-2-2-2-2-2-2-2-2-2-2-2-2----2-2-2-2-2-2---before-the-chorus.----------|
A|--000-0-0-0-0-x-x-x-x-x-x-x-x----2-2-2-2-2-2-------------------------------|
E|--------------4-4-4-4-4-4-4-4----0-0-0-0-0-0-------------------------------|

  Chorus (to be a remain, remain, remain...)
e|--0-0--0-0--0-0--0-0-0-0-0-0=----------------------------------------------|
B|--0-0--0-0--0-0--0-0-0-0-0-0=----------------------------------------------|
G|--2-2--2-2--2-2--2-2-1-1-1-1=----------------------------------------------|
D|--1-1--2-2--1-1--2-2-2-2-2-2=----------------------------------------------|
A|--0-0--0-0--0-0--0-0-0-2-2-2=----------------------------------------------|
E|-----------------------0-0-0=----------------------------------------------|

  2nd Chorus
e|--0-0--0-0--0-0--0-0-0-0-0-0=--0-0--0-0--0-0--0-0--------------------------|
B|--0-0--0-0--0-0--0-0-0-0-0-0=--0-0--0-0--0-0--0-0--------------------------|
G|--2-2--2-2--2-2--2-2-1-1-1-1=--2-2--2-2--2-2--2-1--6--6-6-6--8--8-8--------|
D|--1-1--2-2--1-1--2-2-2-2-2-2=--1-1--2-2--1-1--2-2--6--6-6-6--6--6-6--------|
A|--0-0--0-0--0-0--0-0-0-2-2-2=--0-0--0-0--0-0--0-0--4--4-4-4--7--7-7--------|
E|-----------------------0-0-0=----------------------0--0-0-0----------------|

  Fast bit: Play as fast as you can.
e|---------------------------------------------------------------------------|
B|---------------------------------------------------------------------------|
G|--999999999999999999999999-------------------------------------------------|
D|--xxxxxxxxxxxxxxxxxxxxxxxx-------------------------------------------------|
A|--777777777777777777777777-------------------------------------------------|
E|---------------------------------------------------------------------------|

Order:
Verse
Bridge
Verse
Bridge--Pre-chorus
Chorus
Verse
Bridge
Verse
Bridge--Pre-chorus
Chorus and chorus 2
Fast bit
Bridge--Pre-chorus
Repeat chorus until end.

| /  slide up
| \  slide down
| h  hammer-on
| p  pull-off
| =  let ring
| +  harmonic
| x  Mute note
===============================================================================
Tap to rate this tab
 
# A B C D E F G H I J K L M N O P Q R S T U V W X Y Z