Song name
# A B C D E F G H I J K L M N O P Q R S T U V W X Y Z

Fugazi - Recap Modotti tab

Artist : Fugazi
Album  : End Hits
Song   : Recap Modotti

Transcribed by : Robert Fernandez (re_ferna@ece.concordia.ca)
		11:12 AM 06/05/98

Tune guitar down one step

key:
~   : slide
p   : pull-off
h   : hammer-on
h~p : hammer on and pull off


Intro/Verse:
time (00:36 to 00:58 && 01:11 to 01:24)
e---------7~3-|---------7---------7~3~2--------
B-8-----------|-8---------8--------------------
G---7---7-----|---7---7-----7---7--------------
D-----9-------|-----9---------9----------------
A-------------|--------------------------------
E-------------|--------------------------------



time (00:50 - 00:59 && 01:25 to 01:35)
     (30 times)
e---3-3-...-3-3~5~~0------|
B---3-3-...-3-3~5~~0--    |
G---------------------    |   guitar 1
D---------------------    | 
A---------------------    |
E---------------------    |
                          |  (at the same time)
e---x-x-...-x--x~~0---    |
B---8-8-...-8-10~~0---    |
G---7-7-...-7--9------    |   guitar 2 (chords)
D---9-9-...-9-11------    |
A---------------------    |
E-------------------------|




chorus:

time (01:39 - 01:52 && 01:53 to 02:04)
                         h~p
e--------------------------------
B-----6-----5-----4-----3-4-3---- 
G---4-----4-----4-----4---------- (4 times)
D-5-----5-----5-----5------------
A--------------------------------
E--------------------------------


time (01:50 to 01:52)
    (14 times)
e---------------------
B--3-3-...-3-3--------
G--4-4-...-4-4--------   (back to riff 3-a)
D--5-5-...-5-5--------
A---------------------
E---------------------


time (02:04 to 2:10)
    (14 times)
e---------------------
B--3-3-...-3-3~5------
G--4-4-...-4-4~6------   
D--5-5-...-5-5~7------
A----------------2----
E----------------0----



time (02:12 to 02:21)
e----------7-|-----------------3-------
B--8---------|-----------------3-------
G----7---7---|-------------------------
D------9-----|-5-5-...-5-5~7~~x---------
A------------|-5-5-...-5-5~7~~x---------
E------------|-3-3-...-3-3~5~~0---------
	(14 times)	


outro:  

ad-lib of riff 1


Recap Modotti, by Fugazi

recap in taxi
no clothes no food
take care of the children
we'll send for you soon

alien
you find you feel at home
everywhere
you'll get by
with so much less than anyone

deceived
entrapment through belief
disclosure would decree
accusations would be shed
instead
we stand over the dead
the vultures all well fed
killer running free

outside the window
the passing night sky
fills with people i know
taking me
home


/****************************************
please direct comments/corrections to: 	*
re_ferna@ece.concordia.ca		*
Robert Fernandez			*
****************************************/
Tap to rate this tab
# A B C D E F G H I J K L M N O P Q R S T U V W X Y Z