Song name
# A B C D E F G H I J K L M N O P Q R S T U V W X Y Z

Fugazi - Crazstic Acrostic tab

Intro riff (played through verse as well):

e--2-----4-----4--2-----0-----0---|
B----4-----4--------4-----4-------|
G------4-----4--------4-----4-----|
D---------------------------------|
A---------------------------------|
E---------------------------------|

Verse chords:

e--x----x----x---x---|------------4---|
B--x----x----x---x---|------------4---|
G--11---x----x---x---|------------5---|
D--11---11---7---14--|---13---7---6---|
A--9----11---7---14--|---13---7---6---|
E--9----9----5---12--|---11---5---4---|

Chorus:

e---6---8----4---|
B---6---8----4---|
G---4---9----5---|
D---4---10---6---|
A---6---10---6---|
E---6---8----4---|

Bridge:

e-----2------0-----0--|--2----|
B-------4------4------|--4----|
G---4-----4------4----|--4----|
D---------------------|-------|
A---------------------|-------|
E---------------------|-------|

Outro:

e-----------------------------|--2---x---|
B-----------------------------|--2---2---|
G-----------------------------|--4---2---|
D--4-------4-------4-------4--|--4---2---|
A--4-------4-------4-------4--|--2---0---|
E--2--0-0--2--0-0--2--0-0--2--|--2-------|
Tap to rate this tab
 
# A B C D E F G H I J K L M N O P Q R S T U V W X Y Z