Song name
# A B C D E F G H I J K L M N O P Q R S T U V W X Y Z

Fugazi - Repeater tab

b - bend
r - return bend
(21) - sustaned note
~ - vibrato
pm - palm mute

intro (there is alot of background noise but this is how i play it)
-----
e]----------------------|
b]----------------------|
g]-20b-(21)r-(20)b-21~~-|
d]--x---------------x---|
a]-18b-(19)r-(18)b-19~~-|
e]----------------------|

verse (lots-o-feadback)
-----
e]----------------------|
b]----------------------|
g]-20b-20b-20b-20b------|
d]--x---x---x---x-------|
a]-18b-18b-18b-18b-18~~-|
e]----------------------|

chorus (clean)
e]-------------------------|
b]-------------------------|
g]----14----12---10--4-4-4-|
d]-------------------x-x-x-|
a]-12----10----9-----2-2-2-|
e]-------------------------|

riff 1
------
e]-------------------|-------------------|-----------|
b]-------------------|-------------------|-----------|
g]-9-9-7-9-7-9-7-9-7-|-6-6-4-6-4-6-4-6-4-|-4-4---4---|
d]-x-x---------------|-x-x---------------|-x-x---x-2-|
a]-7-7---------------|-4-4---------------|-2-2---2-2-|
e]-------------------|-------------------|---------0-|
(also ending)

bridge (i guess)
----------------
e]------------------|---------|
b]------------------|---------|
g]------9-----------|---11----|
d]------x-----------|----x----|
a]------7-----------|----9----|
e]------------------|---------|
play these chords alot
Tap to rate this tab
# A B C D E F G H I J K L M N O P Q R S T U V W X Y Z