Guitaretab - guitar tabs
Song name
# A B C D E F G H I J K L M N O P Q R S T U V W X Y Z

Fugazi - Turkish Disco tab

Fugazi
"Turkish Disco"
Instrument

INTRO(Iím only about 95% sure on this partÖit sounds like it is pretty spot on to me though.)

Guitar 1
e----------------------------------|
B----------------------------------|
G-----------------6-6-6------------|
D------8-8-8----------------4--10--|
A------------6-6-6-------------8---|
E-6-6-6-----------------2-2--------|
Guitar 2
e----------------------------------|
B----------------------------------|
G-----------------6-6-6--------6---|
D------8-8-8----------------4------|
A------------6-6-6-------------4---|
E-6-6-6-----------------2-2--------|

Bass Main Part(0:06)
G---------------------------|
D---------------------------|
A-----------3-3-3-3-3-3-3-3-|
E-3-3-6-3-0-----------------|


Guitar 2 Messes with this(0:20):

e------------------------|
B-8-10-10-8-10-----------|
G------------------------|
D------------------------|
A------------------------|
E------------------------|


Guitar 1 Messes with(0:23):

e----------------------|
B----------------------|
G----------------------|
D-4-5---4-4--5-5-4-5-4-|
A----------------------|
E----------------------|
Then Guitar 1 goes to(0:35):
e---------------------------------------------|
B---8--5-----5/slide/7-------0--0-------------|
G--------5-5--5--------5-----7--5-------------|
D-5---------------------------------4-5-5-5-5-|
A---------------------------------------------|
E---------------------------------------------|

"Chorus"(0:50)
Bass
G------------------|
D------------------|
A------------------|
E-3/8--10--3/10--8-|
[ Tab from: http://www.guitaretab.com/f/fugazi/94119.html ]
Guitar 1(listen and you will understand what i mean by, "slide up the neck")
e----------------------------------------------------------|
B-12/Slide up the neck/--9/slide up the neck/--------------|
G----------------------------------------------------------|
D----------------------------------------------------------|
A----------------------------------------------------------|
E----------------------------------------------------------|
Guitar 2
e-----------------------------|
B-----------------------------|
G--13/Slide up the neck/------|
D-----------------------------|
A-----------------------------|
E-----------------------------|

Re-intro(1:51)
Guitar 1(alone once then Guitar 2 enters)
(After this the go to the 'F' and 'C#' notes, respectively)
e----------------------------------|
B----------------------------------|
G-----------------6-6-6------------|
D------8-8-8----------------4------|
A------------6-6-6-----------------|
E-6-6-6-----------------2-2--------|

Outro(2:05)
Bass plays main part
Guitar 1
Palm Muted(as the song fades the palm mute is lifted at 2:20ish):
e----------------------------------|
B----------------------------------|
G----------------------------------|
D----------------------------------|
A------------3-3-3-3-3-3-3-3-------|
E--3-3-6-3-0-----------------------|

Guitar 2
e----------------------------------|
B----------------------------------|
G----------------------------------|
D----------------------------------|
A----------------------------------|
E--3h6p3-6-------------------------|

Fade out....
e-mail me at
jaggedpulpslicedinmyveins@yahoo.com if you want more Fugazi tabs
Related for Turkish Disco tab