Song name
# A B C D E F G H I J K L M N O P Q R S T U V W X Y Z

Full Metal Alchemist - Koukai tab

Koukai - Fullmetal Alchemist OST - Transcribed from harmonica by Missing Score 
(finalfantasiserviii@hotmail.com)


e|------------------------------------------------------------------|
b|--3/10------9---7--6-7-9--------7----5--3--1-----/3--5---3h5p3----|
g|------------------------------------------------------------------|
D|------------------------------------------------------------------|
A|------------------------------------------------------------------|
E|------------------------------------------------------------------|


e|------------------------------------------------------------------|
b|--3/10------9---7--6-7-9-------13----10-9-10----------------------|
g|------------------------------------------------------------------|
D|------------------------------------------------------------------|
A|------------------------------------------------------------------|
E|------------------------------------------------------------------|


e|--------12/13-12-13------13/15---12h13p12-10-8----8----------12---|
b|--10-------------------------------------------------10--12-------|
g|------------------------------------------------------------------|
D|------------------------------------------------------------------|
A|------------------------------------------------------------------|
E|------------------------------------------------------------------|


e|--13--12--13p12-10------------------------------------------------|
b|------------------------------------------------------------------|
g|------------------------------------------------------------------|
D|------------------------------------------------------------------|
A|------------------------------------------------------------------|
E|------------------------------------------------------------------|


e|--------12/13-12-13------13/15---12h13p12-10-8--(6)/8----------12-|
b|--10---------------------------------------------------10--12-----|
g|------------------------------------------------------------------|
D|------------------------------------------------------------------|
A|------------------------------------------------------------------|
E|------------------------------------------------------------------|


e|--12/13--12--13p12-10---------------------------------------------|
b|------------------------------------------------------------------|
g|------------------------------------------------------------------|
D|------------------------------------------------------------------|
A|------------------------------------------------------------------|
E|------------------------------------------------------------------|


e|------------------------------------------------------------------|
b|--3/10------9---7--6-7-9--------7----5h7p5-3-1-----/3--5---3h5p3--|
g|------------------------------------------------------------------|
D|------------------------------------------------------------------|
A|------------------------------------------------------------------|
E|------------------------------------------------------------------|


e|------------------------------------------------------------------|
b|--3/10------9---7--6--7--9--------7----5--3--1-----3--5---3h5p3---|
g|------------------------------------------------------------------|
D|------------------------------------------------------------------|
A|------------------------------------------------------------------|
E|------------------------------------------------------------------|

Played here: www.youtube.com/watch?v=N4xphYwbeTg&feature=watch_response

Original here:
www.youtube.com/watch?v=jpjjSsubkIs&feature=watch_response_rev

Questions/Comments/Requests - Shoot me an email or MSN me on the above address.
Tap to rate this tab
# A B C D E F G H I J K L M N O P Q R S T U V W X Y Z