Full Metal Panic - Hate Is Exceeded tab

        Full Metal Panic - Hate Is Exceeded

|-------1~--0-1-0------------------------------------|
|-----3~----------1---------3~-----1~----------------|
|---2~--------------0~----5~-----3~------------------|
|-3~--------------------3~-----3~--------------------|
|----------------------------------------------------|
|----------------------------------------------------|

|-------1~--0-1-0---------------------|-------8~--10~|
|-----3~----------1-----1~-----3~-----|----11~-------|
|---2~--------------0~----------------|-10~----------|
|-3~----------------------------------|--------------|
|-------------------------------------|--------------|
|-------------------------------------|--------------|
Tap to rate this tab
 
# A B C D E F G H I J K L M N O P Q R S T U V W X Y Z