Song name
# A B C D E F G H I J K L M N O P Q R S T U V W X Y Z

Full Service - Hi Ho tab

-------------------------------------------------------------------------------
			     Hi Ho - Full Service
-------------------------------------------------------------------------------
Tabbed by:Coda Crose
Email:Croady@yahoo.com

Tuning:standard

  Full service is a kickass band....bonesaw is badass... but they tune down like a half 
I just play it regular.The song is three basic parts.Go to Fullservicemusic.com! Best 
ever!

Intro/Verse       (Strums)
    D                  B               D             F#
e|---------------------------------------------------------------------------|
B|---------------------------------------------------------------------------|
G|--777-6-777-7-------444-2-444-2------777-6-777-6----11,11,11--9----11------|
D|--777-7-777-6-------444-4-444-4------777-7-777-7----11,11,11--11---11------|
A|--555-5-555-5-------222-2-222-2------555-5-555-5----9,,9,,9---9----9-------|
E|---------------------------------------------------------------------------|

Chorus    (Just let the power chord ring out)

   B         G        F#      Em    F#
e|---------------------------------------------------------------------------|
B|---------------------------------------------------------------------------|
G|-----4---------------------------------------------------------------------|
D|---4----------0-------4------2------4--------------------------------------|
A|--2---------2-------4------2------4----------------------------------------|
E|----------3-------2------0------2------------------------------------------|

Bridge        (Its a heavy downstrumish thing)

    Bm     D     A     G
e|--7------5-----5----3------------------------------------------------------|
B|--7------7-----5----3------------------------------------------------------|
G|--7------7-----6----4------------------------------------------------------|
D|--9------7-----7----5------------------------------------------------------|
A|--9------5-----7----5------------------------------------------------------|
E|--7------------5----3------------------------------------------------------|

************************************

| /   slide up
| \   slide down
| h   hammer-on
| p   pull-off
| ~   vibrato
| +   harmonic
| x   Mute note
| b   Bend
| pb  Pre-bend
| br  Bend release
| pbr Pre-bend release
| brb Bend release bend

************************************
Tap to rate this tab
 
# A B C D E F G H I J K L M N O P Q R S T U V W X Y Z