Song name
# A B C D E F G H I J K L M N O P Q R S T U V W X Y Z

Full Service - Black Is Back tab

----------------------------------------------------------------------------
                           Black is Back- Full Service
----------------------------------------------------------------------------

Tabbed by:Coda Crose
Email:Croady@yahoo.com

Tuning:Half Step down(I use standard)
This one is for Bonesaw "Here we go again"

This is the verse chorus whatever u wanna call it its all power chords give each a couple strums.


    E       D     A       C      G     
e|---------------------------------------------------------------------------|
B|---------------------------------------------------------------------------|
G|---9------7-------------5--------------------------------------------------|
D|---9------7------7------5-----5--------------------------------------------|
A|---7------5------7------3-----5--------------------------------------------|
E|-----------------5------------3--------------------------------------------|

This is the riff at the end its the legendary scratches just slide the pick across the strings.

e|---------------------------------------------------------------------------|
B|---------------------------------------------------------------------------|
G|---------------------------------------------------------------------------|
D|---2----------------------2-------5------2---------------------------------|
A|---2----------------------2-------5------2---------------------------------|
E|---0-3p0--3/5--3--3p0-----0-------3------0---------------------------------|


The solo is in E i think slide up to the fifteenth fret on the high E to start it off.

I love Full Service


Tap to rate this tab
 
# A B C D E F G H I J K L M N O P Q R S T U V W X Y Z