Song name
# A B C D E F G H I J K L M N O P Q R S T U V W X Y Z

Full Service - 40 Chance chords

Highlighted       Show chord diagrams
-------------------------------------------------------------------------------
			     40% Chance - Full Service
-------------------------------------------------------------------------------
Tabbed by:Coda Crose
Email:Croady@yahoo.com

Tuning:Standard 
Bonesaw+full service=Badass
Very simple song but a very awsome song its all Bm and E.



The start of the song is open chords.

      Bm             E
e|----2--------------0-------------------------------------------------------|
B|----3--------------0-------------------------------------------------------|
G|----4--------------1-------------------------------------------------------|
D|----4--------------2-------------------------------------------------------|
A|----2--------------2-------------------------------------------------------|
E|-------------------0-------------------------------------------------------|

Then it is bar chords for the rest of the song.

      Bm         E
e|-----7---------7-----------------------------------------------------------|
B|-----7---------9-----------------------------------------------------------|
G|-----7---------9-----------------------------------------------------------|
D|-----9---------9-----------------------------------------------------------|
A|-----9---------7-----------------------------------------------------------|
E|-----7---------------------------------------------------------------------|

Fullservicemusic.com

Tap to rate this tab
# A B C D E F G H I J K L M N O P Q R S T U V W X Y Z