Song name
# A B C D E F G H I J K L M N O P Q R S T U V W X Y Z

Full Service - Bluegrass Lake tab

-------------------------------------------------------------------------------
			     Bluegrass Lake - Full Service
-------------------------------------------------------------------------------
Tabbed by:Croady
Email:Croady@yahoo.com

Tuning:Half Step Down(I use standard.)

The first riff is the main riff its kinda tricky and wierd though here is somewhat how it goes.


e|---0---0----0------0---0------------------------------------------------------|
B|---0---0----0------0---0------------------------------------------------------|
G|---8---8p9--8------9---9------------------------------------------------------|
D|---6---6----6------6---6------------------------------------------------------|
A|---7---7----7------7---7------------------------------------------------------|
E|---0---0----0------0---0------------------------------------------------------|

This is the chorus its pretty easy

    Air   Sea      Sky     Land  Shore
     A     G#m      C#m     B     A        E
e|---5------4-------4-------2-----0--------0---------------------------------|
B|---5------4-------5-------4-----2--------0---------------------------------|
G|---6------4-------6-------4-----2--------1---------------------------------|
D|---7------6-------6-------4-----2--------2---------------------------------|
A|---7------6-------4-------2-----0--------2---------------------------------|
E|---5------4---------------------0--------0---------------------------------|


Beautiful FS song its awsome.... bonesaw says the ending is a arppegio of that 
chord...Peace Fansaws!
Tap to rate this tab
# A B C D E F G H I J K L M N O P Q R S T U V W X Y Z