Song name
# A B C D E F G H I J K L M N O P Q R S T U V W X Y Z

Full Voice - Kahapon tab

--Kahapon--
Intro: C-G-Am-F(plucking)

I-
C       G                  Am    F
kahapon lang tayo'y nagkakilala
C       G                  Am    F
ngunit nawala ka na ng bigla
C    G             Am
saan ka ng ba nagpunta bakit 
F                C
iniwan mo akong isa...

CHORUS
   G     Am-F-C   
lumayo ka na..    
G              Am-F-C
bitawan mo na siya..
     G         Am       F           C    
kalimutan ang lahat sa pagdarama sa iyo..
G-Am-F
hooooo... 

II-
  C  G           Am     F
nakahiga ako sa kuwarto
C  G           Am      F  
sa kaiisip sa iyo 
C   G        Am     F
panaginip ba to' sadyang totoo..
(Repeat chorus 2x)
Ad Lib
e|--3p--5--------8-7h878753-----------8s10--|
b|-1-----8-5-6-8--8-------------5--6-8------|
g|--4-----2--------------------2------------|
D|------------------------------------------|
A|------------------------------------------|
E|------------------------------------------|

e|-8-7-8-10s12-10-12s13-12-10-8-10v---------|
b|------------------------------------------|
g|------------------------------------------|
D|------------------------------------------|
A|------------------------------------------|
E|------------------------------------------|
(repeat chorus 2x)
C       G           Am
nag-gigitara ako sa iyo
F           C(break)
wala ka na pala

<>
Jerson Ramos-guitar(vocals)
Eduard Turalba-lead guitar(vocals)
Vic Agsalog-bass
Clint Ico-Drums
Jaypee Malapit-lead vocals

*sana po magustuhan niyo po itong compose po namin
tungkul po ito sa isang pag-ibig, na hindi inaasahan*

composed by: Jerson Ramos A.K.A (caloy)
Tabs by: jaypee Malapit
Tap to rate this tab
 
# A B C D E F G H I J K L M N O P Q R S T U V W X Y Z