Song name
# A B C D E F G H I J K L M N O P Q R S T U V W X Y Z

Fun Lovin Criminals - King Of New York tab

King of New York by the Fun Lovin Criminals

Tabbed by Ringo, Derby, Uk

This is a simplified version, figured out largely by trial and error, so any corrections welcome

Main Riff (Record Version - repeated)
e |-10-10-10-X-X-X-----------|
b |-10-10-10-X-X-X-----------|
g |-10-10-10-X-X-X-----------|
d |-10-10-10-X-X-X-12b-10----|
a |-----------------------12-|
e |--------------------------|

Main Riff (Live Version - repeated)
e |-10-10-10-X-X-X--------------10-10-10-X-X-X--------------|
b |-10-10-10-X-X-X--------------10-10-10-X-X-X--------------|
g |-10-10-10-X-X-X--------------10-10-10-X-X-X--------------|
d |-10-10-10-X-X-X-10h12p10-----10-10-10-X-X-X-10h12p10-----|
a |-------------------------h12-------------------------h12-|
e |---------------------------------------------------------|

e |-10-10-10-X-X-X--------------10-10-12-12-13-12-10-10-10-10-|
b |-10-10-10-X-X-X--------------10-10-12-12-12-12-10-10-10-10-|
g |-10-10-10-X-X-X--------------10-10-12-12-12-12-10-10-10-10-|
d |-10-10-10-X-X-X-10h12p10-----10-10-12-12-12-12-10-10-10-10-|
a |-------------------------h12-------------------------------|
e |-----------------------------------------------------------|

Chorus and (sometimes) verse (repeated, with wah)
e |-X-X-X-X-5-5-X-X-|
b |-X-X-X-X-5-5-X-X-|
g |-X-X-X-X-7-7-X-X-|
d |-X-X-X-X-7-7-X-X-|
a |-X-X-X-X-----X-X-|
e |-X-X-X-X-----X-X-|

Outro (simplified)
e |------13------13------13------13-|
b |---------------------------------|
g |-16b~----16b~----16b~----16b~----|
d |---------------------------------|
a |---------------------------------|
e |---------------------------------|
Tap to rate this tab
# A B C D E F G H I J K L M N O P Q R S T U V W X Y Z